Oops, an error
Loading. Please wait.

Danita - Di Ka Makuha Sa Tingin tab

137 views 1 this week
no commentswrite comment
1 2 3 4 5
3 more votes to show rating
add to favorites
×
Save as Personal and add changes to this tab that will be seen only by you. Learn more ›
×
You can save this tab as Personal to edit and correct it or add notes. All changes will be seen only by you. Learn more »
launch autoscroll
font size
0
reset
how to read this tab
guitar tuner
edit
Autoscroll
slow
fast
+/-
esc
set tempo
stop
Song:Di ka makuha sa tingin
Album:Promotor
Artist:Danita
Date Tabbed:06/27/2007
Tabber: cLiff0rd sALiente (17yrs 0Ld) cam.sUr

Hi p0 pLa sa mga kaibigan q!!mgbago na kay0!!saLamat din sa mga kapatid q tnULungan niLa 
d2!!hEhehe!!

Guitar tuning (standard)
Intro:

e|----------||---------||
B|----------||---------||
G|-----9----||-------9-||
D|-9-9---11-||-9-9-11--||
A|----------||---------||
E|----------||---------||

Chorus:

e|-------------------------------------|
B|-------------------------------------|
G|-66666----------------99999--88888---|
D|-66666--77777--99999--99999--88888---|
A|-44444--77777--99999--77777--66666---|
E|--------55555--77777-----------------|
Di ka makuha sa tingin
Parang naubos na ang hangin
Di ka makuha sa tingin
Nangungulit ang damdamin

Intro ulit:2x

Verse:

e|-----------------------------------------------|
B|-5-5-5-5-----------------------8-8-8-8---------|
G|-6--6-6-6--6-6-6-6---8-8-8-8---9--9-9-9--9-----|
D|-6---------7--7-7-7--9--9-9-9--9--------9------|
A|-4---------7---------9---------7-------6-------|
E|-----------5---------7-------------------------|
Kanina pa ako sa salamin
Hanap ang kulay ng pansin
Di mapili ang ngiti na gagamitin

Chorus:

e|-------------------------------------|
B|-------------------------------------|
G|-66666----------------99999--88888---|
D|-66666--77777--99999--99999--88888---|
A|-44444--77777--99999--77777--66666---|
E|--------55555--77777-----------------|
Di ka makuha sa tingin
Parang naubos na ang hangin
Di ka makuha sa tingin
Nangungulit ang damdamin


e|-----------------------------------------------|
B|-5-5-5-5-----------------------8-8-8-8---------|
G|-6--6-6-6--6-6-6-6---8-8-8-8---9--9-9-9--9-----|
D|-6---------7--7-7-7--9--9-9-9--9--------9------|
A|-4---------7---------9---------7-------6-------|
E|-----------5---------7-------------------------|
Nagmamadali ang hapon
Pula ata ang ulap ngayon
Pero di pa rin makapili
Pihado sa simula palang
Pinakabit ang pangyayari
Wala naming sinasabi

Repeat Chorus 2X

Sasabay to sa  2nd chorus.

e|------------------||----------------||---------------||-------7-||
B|-9-7-5-7/9-7-5----||-9-7-/9\7/9\7---||-9-7-5-7/9-7-5-||-9-7-5---||
G|---------------6--||--------------6-||---------------||---------||
D|------------------||----------------||---------------||---------||
A|------------------||----------------||---------------||---------||
E|------------------||----------------||---------------||---------||

Bridge:

e|--------------|
B|--------------|
G|--------66666-|
D|-77777--66666-|
A|-77777--44444-|
E|-55555--------|

Wohoh..
Pahingi ng tulong
Wohoh..
Ikaw ay kasalubong

Repeat Chorus 5X fade…

pAki-intindi naLang p0!!.mEdy0 mgULo Lng!!pkinggan nYo nLng p0 uNg s0ng para mkuha 
p0!!pki-rate nLng p0!!comment nLng p0 para sa maLi!!

            
            
Suggest correction
Creating personal tab
Creating personal tab
You can edit any tab online and save it as your Personal.

You can edit, replace or remove any tab part or add personal notes – all changes will be seen only by you.

Personal tabs can be accessed anytime from any device, even offline.
Learn more »
Give kudos to tab author, rate the tab!
1 2 3 4 5
comments
print report bad tab
guest
Wanna post a correction for this tab? Suggest correction