Oops, an error
Loading. Please wait.

Danita - Lunod tab

2,705 views 1 this week
4 commentsread comments
1 2 3 4 5
x 9
add to favorites
×
Save as Personal and add changes to this tab that will be seen only by you. Learn more ›
×
You can save this tab as Personal to edit and correct it or add notes. All changes will be seen only by you. Learn more »
launch autoscroll
font size
0
reset
how to read this tab
guitar tuner
edit
Autoscroll
slow
fast
+/-
esc
set tempo
stop
Song:Lunod
Album:Promotor
Artist:Danita
Date Tabbed:March,2007
Guitar Tabber:Ryan Manongdo/17/m/Montalban Rizal
              no_falter0x@yahoo.com(Friendster&YM)

I would like to dedicate this song to HONEYLET...hehe

For your comments,questions or suggestions,just Post a Comment or PM me.

Gtr.Legends:
~ - let it ring
x - dead string

Gtr.Tuning:Standard(Normal)

Intro and Verse:Sa isang iglap...
Gtr.1
e|------0-------------0------------0------------0-------|
B|----0---0-2-------0---0-2------0---0--------0---0-----|
G|-2~-----------2~------------6~-------6---6~-------6---| 3x
D|-2~-----------2~------------6~-----------6~-----------| Then
A|-0~-----------0~------------4~-----------4~-----------|
E|-0~-----------0~--------------------------------------|

-----0-----------0------000-000-000---|
---0---0-2-----0---0-2--000-000-000---|
-2~---------2~----------111-222-111---|
-2~---------2~----------111-222-222---|
-0~---------0~--------------000-222---|
-0~---------0~------------------------|


Gtr.2 Enters(Distorted):Ba't di mo sinabi...
e|-----------------------------|
B|-0~----0~--------------------|
G|-2~----2~--------------------|
D|-2~----2~---6666-7777-9999---|
A|-0~----0~---6666-7777-9999---|
E|-0~----0~---4444-5555-7777---|

Chorus:Pag-sisihan mo...
Gtr.1(Clean)
e|-00000--00000--00000--0000--0000--      -------0------------0------------0-----------0--------|
B|-00000--00000--00002--0000--0000--      -----0---0-2------0---0-2------0---0-------0---0------|
G|-11111--44444--22222--6666--4444-- 2x   -2~------------2~-----------6~-------6--6~--------6---|
D|-22222--44444--22222--6666--4444-- Then -2~------------2~-----------6~----------6~------------|
A|-22222--22222--00000--4444--2222--      -0~------------0~-----------4~----------4~------------|
E|----------------------------------      -0~------------0~-------------------------------------|

Gtr.2(Distorted)                               (USE DELAY)
e|----------------------------------      ---------4-4-----------|
B|----------------------------------      -----5-5-----5---------|
G|--------44444--22222--6666--4444-- 2x   ------------------6~---|
D|-22222--44444--22222--6666--4444-- Then -7~---------------6~---|
A|-22222--22222--00000--4444--2222--      -7~---------------4~---|
E|-00000----------------------------      -5~--------------------|

Repeat Verse:

Chorus 2:Pag-sisihan mo...
Gtr.1
e|-----------------------------------|
B|-----------------------------------|
G|--------44444--22222--6666--4444---| 2x
D|-22222--44444--22222--6666--4444---|
A|-22222--22222--00000--4444--2222---|
E|-00000-----------------------------|

Gtr.2:
e|-------------------------------------------------|
B|-------------------------------------------------|
G|-999999999999999999999999999999999999999999999---|
D|-xxxxxxxxxxxxxxxxxxxxxxxxxxxxxxxxxxxxxxxxxxxxx---|
A|-777777777777777777777777777777777777777777777---|
E|-------------------------------------------------|

Bridge:Wala namang mawawala...                                         Pag-sisishan mo...
Gtr.1                                                                     (CLEAN)     (DISTORT)
e|------------------------------------------------------------------------0----0----0-----------|
B|-----------------------------------------------------------------------0----------------------|
G|-66666--44444--22222--6666--4444---66666--44444----------------4444---2-----4----2---6~--4~---|
D|-66666--44444--22222--6666--4444---66666--44444--44444--77777--4444--------4----2----6~--4~---|
A|-44444--22222--00000--4444--2222---44444--22222--44444--77777--2222-------2----0-----4~--2~---|
E|-------------------------------------------------22222--55555--------0------------------------|

Gtr.2:                                                                      (JET)     (DISTORT)
e|----------------------------------------------------------------------------------------------|
B|----------------------------------------------------------------------------------------------|
G|-9999999999999999999999999999999999999999999999----------------4444------------------6~--4~---|
D|-xxxxxxxxxxxxxxxxxxxxxxxxxxxxxxxxxxxxxxxxxxxxxx--44444--77777--4444--2~--------------6~--4~---|
A|-7777777777777777777777777777777777777777777777--44444--77777--2222--2~--------------4~--2~---|
E|-------------------------------------------------22222--55555--------0~---pickslide-----------|

Repeat Chorus 2:

Last Chord:
e|------|
B|------|
G|-2~---|
D|-2~---|
A|-0~---|
E|-0~---|

End...

Lunod Lyrics:

Verse 1:
Sa isang iglap mawawala malulunod sa luha ko
Bat di mo sinabi ito ang mangyayari
Tinatanong mo yan ngayon

Chorus:
Pagsisihan mo yan ang sabi mo pero di mo na gusto ngayon
Pagsisihan mo ang sinabi mo na ayaw ko na sayo oHhHH..

Verse 2
Sa isang iglap maglalaho parang bula alaala mo
bat di mo sinabi ito ang mangyayari
tinatanong mo yan ngayon

Repeat Chorus:

Bridge:
wala namang mawawala
wala ka ng magagawa
wala namang mawawala
wala.. wala..

Outro Chorus:
pagsisihan mo ang sinabi mo pero di mo na gusto ngayon
pagsisihan mo ang sinabi mo na ayaw ko na sayo ohHhh
pagisipan mo ang sinabi mo pero di mo na gusto ngayon
pagisipan mo ang sinabi mo na ayaw ko na sayo oHhHhH..

            
            
Suggest correction
Creating personal tab
Creating personal tab
You can edit any tab online and save it as your Personal.

You can edit, replace or remove any tab part or add personal notes – all changes will be seen only by you.

Personal tabs can be accessed anytime from any device, even offline.
Learn more »
comments
print report bad tab
4 comments total. Showing first comments.
0 reply
elvin_guitar 397 Apr 01, 2007 09:35 PM

dude!!! 5 stars po... lupet mo po.. naunahan mu ako... danda nga po ng song na ito..... pluckings n lng sa verse kulang ko eh.. hehehe... naunahan na tuloy ako... gue... lupet..

0 reply
ZONE4ever 10 Apr 03, 2007 10:18 PM

okie lng yan elvin..^_^ amp0tah..naaadik na ko kei DANITA pati mga kanta nia..fave koh ung LUNOD..astig..

0 reply
b0jay21 10 Jun 16, 2007 12:58 AM

nice nice XD

guest
You may want to rate the tab now too:
select rating
Wanna post a correction for this tab? Suggest correction