Oops, an error
Loading. Please wait.

Discord - Sexy Needle tab

159 views 1 this week
2 commentsread comments
1 2 3 4 5
x 3
add to favorites
×
Save as Personal and add changes to this tab that will be seen only by you. Learn more ›
×
You can save this tab as Personal to edit and correct it or add notes. All changes will be seen only by you. Learn more »
launch autoscroll
font size
0
reset
how to read this tab
guitar tuner
edit
Autoscroll
slow
fast
+/-
esc
set tempo
stop
Difficulty
intermediate
Intro: (0:00)

Guitar1: (Edd)
E|----------0--------------0--------------0---------------0-----|
B|--------1---1----------1---1----------1---1-----------1---1---|
G|------4------4-------4------4-------4-------4-------4------4--|
D|----2---------2----2---------2----0----------0----0---------0-|
A|--0--------------0--------------0---------------0-------------|
E|--------------------------------------------------------------|

Guitar 2: (Ross)
E|--------------------------------------------------------------|
B|--------------------------------------------------------------|
G|--------------------------------------------------------------|
D|--------------------------------------------------------------|
A|--------------------------------------------------------------|
E|--------------------------------------------------------------|

Guitar1: (Edd)
E|----------0--------------0--------------0---------------0-----|
B|--------1---1----------1---1----------1---1-----------1---1---|
G|------4------4-------4------4-------4-------4-------4------4--|
D|----3---------3----3---------3----0----------0----0---------0-|
A|--0--------------0--------------------------------------------|
E|--------------------------------3---------------3-------------|

Guitar 2: (Ross)
E|--------------------------------------------------------------|
B|--------------------------------------------------------------|
G|--------------------------------------------------------------|
D|--3-----------------------------5-----------------------------|
A|--3-(16x)-----------------------5-(16x)-----------------------|
E|--1-----------------------------3-----------------------------|

Verse 1: (0:17)

Guitar 1: (Edd)
E|----------0--------------0--------------0---------------0-----|
B|--------1---1----------1---1----------1---1-----------1---1---|
G|------4------4-------4------4-------4-------4-------4------4--|
D|----3---------3----0---------2----0----------0----0---------0-| ---> 2x
A|--0-----------------------------0---------------0-------------|
E|-----------------3--------------------------------------------|

Guitar 2: (Ross)
E|--------------------------------------------------------------|
B|--------------------------------------------------------------|
G|--------------------------------------------------------------|
D|--3-------------5---------------7-7-x-7--7-7-x----------------| ---> 2x
A|--3-(8x)--------5-(8x)----------7-7-x-7--7-7-x-(2x)-----------|
E|--1-------------3---------------5-5-x-5--5-5-x----------------|

Fill 1: (0:36)

Guitar 1: (Ross)
E|--------------------------------------------------------------|
B|------1---0h1-----3p1-1-0h1----1------------------------------|
G|--------------2-------------2------(6x)-----------------------|
D|----2---2------2-------------2--------------------------------|
A|--0-----------------------------------------------------------|
E|--------------------------------------------------------------|

Guitar 2: (Edd)
E|--------------------------------------------------------------|
B|--------------------------------------------------------------|
G|--------------------------------------------------------------| -->  (2x)
D|-3---------5----------7---------------------------------------|
A|-3---(16x)-5---(16x)--7---(16x)-------------------------------|
E|-1-1-------3-3--------5-5-------------------------------------|

Verse 1 Continues: (1:01)

Guitar 1: (Edd)
E|----------0--------------0--------------0---------------0-----|
B|--------1---1----------1---1----------1---1-----------1---1---|
G|------4------4-------4------4-------4-------4-------4------4--|
D|----3---------3----0---------2----0----------0----0---------0-| ---> (2x)
A|--0-----------------------------0---------------0-------------|
E|-----------------3--------------------------------------------|

Guitar 2: (Ross)
E|--------------------------------------------------------------|
B|--------------------------------------------------------------|
G|--------------------------------------------------------------|
D|--3-------------5---------------7-7-x-7--7-7-x----------------| ---> (2x)
A|--3-(8x)--------5-(8x)----------7-7-x-7--7-7-x-(2x)-----------|
E|--1-------------3---------------5-5-x-5--5-5-x----------------|

Chorus: (1:20)

Guitar 1: (Ross)
E|--------------------------------------------------------------|
B|-8b(10)-------------------------------------------------------|
G|----------9-7----------------9-7------------9-7-------7/9-----| ----> 3x
D|--------------x-7---------------x-3-------------x-5-----------|
A|--------------------------------------------------------------|
E|--------------------------------------------------------------|

Guitar 2: (Edd)
E|------------------------------------------------------------------------|
B|------------------------------------------------------------------------|
G|------------------------------------------------------------------------|->3x
D|-7-7s-x-x-7-x-7s-7-7s-x-x-7-x-7s--3-3s-x-x-3-x-3s--5-5s-x-x-5-x-5s------|
A|-7-7s-x-x-7-x-7s-7-7s-x-x-7-x-7s--3-3s-x-x-3-x-3s--5-5s-x-x-5-x-5s------|
E|-5-5s-x-x-5-x-5s-5-5s-x-x-5-x-5s--1-1s-x-x-1-x-1s--3-3s-x-x-3-x-3s------|

Pre Verse: (1:44)

Guitar 1: (Edd)
E|----------0--------------0--------------0---------------0-----|
B|--------1---1----------1---1----------1---1-----------1---1---|
G|------4------4-------4------4-------4-------4-------4------4--|
D|----3---------3----0---------2----0----------0----0---------0-|
A|--0-----------------------------0---------------0-------------|
E|-----------------3--------------------------------------------|

Guitar 2: (Ross)
E|--------------------------------------------------------------|
B|--------------------------------------------------------------|
G|--------------------------------------------------------------|
D|--3-------------5---------------7-7-x-7--7-7-x----------------|
A|--3-------------5---------------7-7-x-7--7-7-x-(2x)-----------|
E|--1-------------3---------------5-5-x-5--5-5-x----------------|

Verse 2: (1:53)

Guitar 1: (Edd)
E|----------0--------------0--------------0---------------0-----|
B|--------1---1----------1---1----------1---1-----------1---1---|
G|------4------4-------4------4-------4-------4-------4------4--| ---> 2x
D|----3---------3----0---------2----0----------0----0---------0-| 
A|--0-----------------------------0---------------0-------------|
E|-----------------3--------------------------------------------|

Guitar 2: (Ross)
E|--------------------------------------------------------------|
B|--------------------------------------------------------------|
G|--------------------------------------------------------------| ---> 2x
D|--3-------------5---------------7-7-x-7--7-7-x----------------|
A|--3-(8x)--------5-(8x)----------7-7-x-7--7-7-x-(2x)-----------|
E|--1-------------3---------------5-5-x-5--5-5-x----------------|

Fill 2: (2:10)

Guitar 1: (Edd)
E|----------0--------------0--------------0---------------0-----|
B|--------1---1----------1---1----------1---1-----------1---1---|
G|------4------4-------4------4-------4-------4-------4------4--|
D|----3---------3----0---------2----0----------0----0---------0-|
A|--0-----------------------------0---------------0-------------|
E|-----------------3--------------------------------------------|

Guitar 2: (Ross)
E|--------------------------------------------------------------|
B|--8bv-(10)br-10-------10-8------------------------------------|
G|---------------------------9------------7/9-7-----------------|
D|--------------------------------------------------------------|
A|--------------------------------------------------------------|
E|--------------------------------------------------------------|

Guitar 1: (Edd)
E|----------0--------------0--------------0---------------0-----|
B|--------1---1----------1---1----------1---1-----------1---1---|
G|------4------4-------4------4-------4-------4-------4------4--|
D|----3---------3----0---------2----0----------0----0---------0-|
A|--0-----------------------------0---------------0-------------|
E|-----------------3--------------------------------------------|

Guitar 2: (Ross)
E|--------------------------------------------------------------|
B|--/6-------8--------------------------------------------------|
G|-------------7-7-------------7/9--7-9------9-7~---------------|
D|--------------------------------------------------------------|
A|--------------------------------------------------------------|
E|--------------------------------------------------------------|

Verse 2 Continues: (2:28)

Guitar 1: (Edd)
E|----------0--------------0--------------0---------------0-----|
B|--------1---1----------1---1----------1---1-----------1---1---|
G|------4------4-------4------4-------4-------4-------4------4--| ------> 2x
D|----3---------3----0---------2----0----------0----0---------0-|
A|--0-----------------------------0---------------0-------------|
E|-----------------3--------------------------------------------|

Guitar 2: (Ross)
E|--------------------------------------------------------------|
B|--------------------------------------------------------------|
G|--------------------------------------------------------------| ------> 2x
D|--3-------------5---------------7-7-x-7--7-7-x----------------|
A|--3-(8x)--------5-(8x)----------7-7-x-7--7-7-x-(2x)-----------|
E|--1-------------3---------------5-5-x-5--5-5-x----------------|

Chorus: (2:46)

Guitar 1: (Ross)
E|--------------------------------------------------------------|
B|-8b(10)-------------------------------------------------------|
G|----------9-7----------------9-7------------9-7-------7/9-----| ----> 3x
D|--------------x-7---------------x-3-------------x-5-----------|
A|--------------------------------------------------------------|
E|--------------------------------------------------------------|

Guitar 2: (Edd)
E|------------------------------------------------------------------------|
B|------------------------------------------------------------------------|
G|------------------------------------------------------------------------|->3x
D|-7-7s-x-x-7-x-7s-7-7s-x-x-7-x-7s--3-3s-x-x-3-x-3s--5-5s-x-x-5-x-5s------|
A|-7-7s-x-x-7-x-7s-7-7s-x-x-7-x-7s--3-3s-x-x-3-x-3s--5-5s-x-x-5-x-5s------|
E|-5-5s-x-x-5-x-5s-5-5s-x-x-5-x-5s--1-1s-x-x-1-x-1s--3-3s-x-x-3-x-3s------|

SOLO: (3:10)

Guitar 1: (Edd)
E|----------0--------------0--------------0---------------0-----|
B|--------1---1----------1---1----------1---1-----------1---1---|
G|------4------4-------4------4-------4-------4-------4------4--|
D|----3---------3----0---------2----0----------0----0---------0-|
A|--0-----------------------------0---------------0-------------|
E|-----------------3--------------------------------------------|

Guitar 2: (Ross)
E|--------------------------------------------------------------|
B|--8bv-(10)br---10---------10-8--------------------------------|
G|-------------------------------9-----------7/9-7--------------|
D|--------------------------------------------------------------|
A|--------------------------------------------------------------|
E|--------------------------------------------------------------|

Guitar 3 (BASS): (Edd)
E|--------------------------------------------------------------|
B|--------------------------------------------------------------|
G|--------------------------------------------------------------|
D|--------------------------------------------------------------|
A|--3--------------5--------------7-----------------------------|
E|--1-(8x)---------3-(8x)---------5-(16x)-----------------------|

Guitar 1: (Edd)
E|----------0--------------0--------------0---------------0-----|
B|--------1---1----------1---1----------1---1-----------1---1---|
G|------4------4-------4------4-------4-------4-------4------4--|
D|----3---------3----0---------2----0----------0----0---------0-|
A|--0-----------------------------0---------------0-------------|
E|-----------------3--------------------------------------------|

Guitar 2: (Ross)
E|--------------------------------------------------------------|
B|--/5----------------------------------------8/10--------------|
G|------------7/9--7--------10-9-7------------------------------|
D|--------------------------------------------------------------|
A|--------------------------------------------------------------|
E|--------------------------------------------------------------|

Guitar 3 (BASS): (Edd)
E|--------------------------------------------------------------|
B|--------------------------------------------------------------|
G|--------------------------------------------------------------|
D|--------------------------------------------------------------|
A|--3--------------5--------------7-----------------------------|
E|--1-(8x)---------3-(8x)---------5-(16x)-----------------------|

Guitar 1: (Edd)
E|----------0--------------0--------------0---------------0-----|
B|--------1---1----------1---1----------1---1-----------1---1---|
G|------4------4-------4------4-------4-------4-------4------4--|
D|----3---------3----0---------2----0----------0----0---------0-|
A|--0-----------------------------0---------------0-------------|
E|-----------------3--------------------------------------------|

Guitar 2: (Ross)
E|--------------------------------------------------------------|
B|--------------------------------------------------------------|
G|-10-9-7-10-9-7-10-9-7~------7-9--------------9----------------|
D|--------------------------------7~-------------7~-------------|
A|--------------------------------------------------------------|
E|--------------------------------------------------------------|

Guitar 3 (BASS): (Edd)
E|--------------------------------------------------------------|
B|--------------------------------------------------------------|
G|--------------------------------------------------------------|
D|--------------------------------------------------------------|
A|--3--------------5--------------7-----------------------------|
E|--1-(8x)---------3-(8x)---------5-(16x)-----------------------|

OUTRO BREAKOUT: (3:36)

Guitar 1: (Edd)
E|--------------------------------------------------------------|
B|--------------------------------------------------------------|
G|--------------------------------------------------------------|
D|--3-------------5---------------7-7-x-7--7-7-x----------------|
A|--3-(8x)--------5-(8x)----------7-7-x-7--7-7-x-(2x)-----------|
E|--1-------------3---------------5-5-x-5--5-5-x----------------|

Guitar 2: (Ross)
E|--------------------------------------------------------------|
B|--------------------------------------------------------------|
G|--------------------------------------------------------------|
D|--3-------------5---------------7-7-x-7--7-7-x----------------|
A|--3-(8x)--------5-(8x)----------7-7-x-7--7-7-x-(2x)-----------|
E|--1-------------3---------------5-5-x-5--5-5-x----------------|

Guitar 1: (Edd)
E|--------------------------------------------------------------|
B|--------------------------------------------------------------|
G|--------------------------------------------------------------|
D|--3-------------5---------------7-7-x-7--7-7-x----------------| ----> 2x
A|--3-(8x)--------5-(8x)----------7-7-x-7--7-7-x-(2x)-----------|
E|--1-------------3---------------5-5-x-5--5-5-x----------------|

Guitar 2: (Ross)
E|--------------------------------------------------------------|
B|--------------------------------------------------------------|
G|--10-----------12---------------14----------------------------|
D|----(8x)----------(8x)-------------(16x)----------------------| ----> 2x
A|--8------------10---------------12----------------------------|
E|--------------------------------------------------------------|

That's It... You can find mp3 of this song in http://www.myspace.com/discord054684

            
            
Suggest correction
Creating personal tab
Creating personal tab
You can edit any tab online and save it as your Personal.

You can edit, replace or remove any tab part or add personal notes – all changes will be seen only by you.

Personal tabs can be accessed anytime from any device, even offline.
Learn more »
Give kudos to tab author, rate the tab!
1 2 3 4 5
comments
print report bad tab
2 comments total.
0 reply
Reages 226 May 03, 2006 08:39 AM

very impressive :)

0 reply
Reages 226 May 03, 2006 08:56 AM

you can find this song at http://www.myspace.com/discord054684

guest
Wanna post a correction for this tab? Suggest correction