Oops, an error
Loading. Please wait.

Eccentric Toilet - Unheaven tab

465 views 1 this week
no commentswrite comment
1 2 3 4 5
3 more votes to show rating
add to favorites
×
Save as Personal and add changes to this tab that will be seen only by you. Learn more ›
×
You can save this tab as Personal to edit and correct it or add notes. All changes will be seen only by you. Learn more »
launch autoscroll
font size
0
reset
how to read this tab
guitar tuner
edit
Autoscroll
slow
fast
+/-
esc
set tempo
stop
Author
Eccentric Toilet - Unheaven
Tabbed by: Billybusa (me)
Tuning: Drop C

Guitar 1: (Panned to the Right)
D||---------------------------|
A||--6--5--6--8--6--8--10--8--|
F||---------------------------|
C||---------------------------|
G||---------------------------|
C||---------------------------|

-----------------------------|
--10--11--10--8--10~---------|
-----------------------------|
-----------------------------|
-----------------------------|
-----------------------------|

--------------------------|
--11----8--------------6--|
--------------------------|
--------------------------|
--------------------------|
--------------------------|

---------------------------|
--6--5--6--8--6--8--10--8--|
---------------------------|
---------------------------|
---------------------------|
---------------------------|

-----------------------------|
--10--11--10--8--10~---------|
-----------------------------|
-----------------------------|
-----------------------------|
-----------------------------|

--------------------------|
--11----8--------------6--|
--------------------------|
--------------------------|
--------------------------|
--------------------------|

---------------------------|
--6--5--6--8--6--8--10--8--|
---------------------------|
---------------------------|
---------------------------|
---------------------------|

-----------------------------|
--10--11--10--8--10~---------|
-----------------------------|
-----------------------------|
-----------------------------|
-----------------------------|

--------------------------|
--11----8--------------6--|
--------------------------|
--------------------------|
--------------------------|
--------------------------|

---------------------------|
--6--5--6--8--6--8--10--8--|
---------------------------|
---------------------------|
---------------------------|
---------------------------|

-----------------------------|
--10--11--10--8--10~---------|
-----------------------------|
-----------------------------|
-----------------------------|
-----------------------------|

--------------------------|
--11----8--------------6--|
--------------------------|
--------------------------|
--------------------------|
--------------------------|

----------------------------------|
----------------------------------|
----------------------------------|
----------------------------------|
--0-0-----------------------------|
--0-0-----------------------------|

----------------------------------|
----------------------------------|
----------------------------------|
----------------------------------|
--0-0-----------------------------|
--0-0-----------------------------|

----------------------------------|
----------------------------------|
------7---5---3---5---7---5---3-3-|
----------------------------------|
----------------------------------|
--0-0---0---0---0---0---0---0-----|

----------------------------------|
----------------------------------|
------7---5---3---5---7---5---3-3-|
----------------------------------|
----------------------------------|
--0-0---0---0---0---0---0---0-----|

------------------------------------------|
------------------------------------------|
------------------------------------------|
--------7----5----3----5----7----5----3-3-|
------------------------------------------|
--0--0----0----0----0----0----0----0------|

------------------------------------------|
------------------------------------------|
------------------------------------------|
--------7----5----3----5----7----5----3-3-|
------------------------------------------|
--0--0----0----0----0----0----0----0------|

----------------------------------|
----------------------------------|
------7---5---3---5---7---5---3-3-|
----------------------------------|
----------------------------------|
--0-0---0---0---0---0---0---0-----|

----------------------------------|
----------------------------------|
------7---5---3---5---7---5---3-3-|
----------------------------------|
----------------------------------|
--0-0---0---0---0---0---0---0-----|

|----------------------------------||
|----------------------------------||
|*--------------------------------*||
|*--------------------------------*||
|----------------------------------||
|---8--10--12--10--8--10--12--10---||

------------------------------------||
------------------------------------||
*----------------------------------*||
*----------------------------------*||
------------------------------------||
---10--12--14--12--10--12--14--12---||

------------------------------------||
------------------------------------||
*----------------------------------*||
*----------------------------------*||
------------------------------------||
---12--14--15--14--12--14--15--14---||

------------------------------------||
------------------------------------||
*----------------------------------*||
*----------------------------------*||
------------------------------------||
---14--15--17--15--14--15--17--15---||

------------------------------------------|
------------------------------------------|
------------------------------------------|
--------7----5----3----5----7----5----3-3-|
------------------------------------------|
--0--0----0----0----0----0----0----0------|

------------------------------------------|
------------------------------------------|
------------------------------------------|
--------7----5----3----5----7----5----3-3-|
------------------------------------------|
--0--0----0----0----0----0----0----0------|

----------------------------------|
----------------------------------|
------7---5---3---5---7---5---3-3-|
----------------------------------|
----------------------------------|
--0-0---0---0---0---0---0---0-----|

----------------------------------|
----------------------------------|
------7---5---3---5---7---5---3-3-|
----------------------------------|
----------------------------------|
--0-0---0---0---0---0---0---0-----|

------------------------------------------|
------------------------------------------|
------------------------------------------|
--------7----5----3----5----7----5----3-3-|
------------------------------------------|
--0--0----0----0----0----0----0----0------|

------------------------------------------|
------------------------------------------|
------------------------------------------|
--------7----5----3----5----7----5----3-3-|
------------------------------------------|
--0--0----0----0----0----0----0----0------|

----------------------------------|
----------------------------------|
------7---5---3---5---7---5---3-3-|
----------------------------------|
----------------------------------|
--0-0---0---0---0---0---0---0-----|

----------------------------------|
----------------------------------|
------7---5---3---5---7---5---3-3-|
----------------------------------|
----------------------------------|
--0-0---0---0---0---0---0---0-----|

|-------------------------|
|-------------------------|
|*------------------------|
|*--3---------------2--3--|
|-------------------------|
|-------------------------|

----------------------||
----------------------||
--2------3-----------*||
------------5--------*||
----------------------||
----------------------||

------------------------------|
------------------------------|
*-----------------------------|
*-----------------------------|
---8------8-10-12--10--8--10--|
------------------------------|

------------------------|
------------------------|
------------------------|
------------------------|
--8------8-10-8----7----|
------------------------|

--------------------------|
--------------------------|
--------------------------|
--7------7-8-10--8--7--8--|
--------------------------|
--------------------------|

------------------------||
------------------------||
-----------------------*||
--7------7-8-7----5----*||
------------------------||
------------------------||

--------------------|-----------------------|
--------------------|-----------------------|
--------------------|-----------------------|
--------------------|-----------------------|
--0--------3--------|--2--------5--3--2--3--|
--0--------3--------|--2--------5--3--2--3--|

--------------------|-----------------------|
--------------------|-----------------------|
--------------------|-----------------------|
--------------------|-----------------------|
--0--------3--------|--2--------5--3--2--3--|
--0--------3--------|--2--------5--3--2--3--|

-------------------|-------------------|
-------------------|-------------------|
-------------------|-------------------|
-------------------|-------------------|
--0----------------|--L----------------|
--0----------------|--L----------------|

-------------------|-------------------|
-------------------|-------------------|
-------------------|-------------------|
-------------------|-------------------|
--L----------------|--L----------------|
--L----------------|--L----------------|

-------|-------------------------|
-------|-----------17---17---17--|
-------|-----------22---22---22--|
-------|-------------------------|
-------|-------------------------|
-------|-------------------------|

|---------------------|--------------------|
|---17----------------|--17----------------|
|*--22----------------|--22----------------|
|*--------------------|--------------------|
|---------------------|--------------------|
|---------------------|--------------------|

--------------------|---------------------||
--17----------------|--17-----------------||
--22----------------|--22----------------*||
--------------------|--------------------*||
--------------------|---------------------||
--------------------|---------------------||

Guitar 2: (Panned to the Left)
D||-------------------|
A||-------------------|
F||-------------------|
C||-------------------|
G||--0----------------|
C||--0----------------|

----------------------|---------------------|
----------------------|---------------------|
----------------------|---------------------|
----------------------|---------------------|
-----0------2---------|------2--------------|
-----0------2---------|------2--------------|

-------------------|----------------------|
-------------------|----------------------|
-------------------|----------------------|
-------------------|----------------------|
--0----------------|-----0------2---------|
--0----------------|-----0------2---------|

----------------------|-------------------|
----------------------|-------------------|
----------------------|-------------------|
----------------------|-------------------|
------2---------------|--0----------------|
------2---------------|--0----------------|

----------------------|
----------------------|
----------------------|
----------------------|
-----0------2---------|
-----0------2---------|

----------------------|-------------------|
----------------------|-------------------|
----------------------|-------------------|
----------------------|-------------------|
------2---------------|--0----------------|
------2---------------|--0----------------|

----------------------|
----------------------|
----------------------|
----------------------|
-----0------3---------|
-----0------3---------|

----------------------|
----------------------|
----------------------|
----------------------|
------2---------------|
------2---------------|

------------------------------------------|
------------------------------------------|
------------------------------------------|
------------------------------------------|
--------8----7----5----7----8----7----5-5-|
--0--0----0----0----0----0----0----0------|

------------------------------------------|
------------------------------------------|
------------------------------------------|
------------------------------------------|
--------8----7----5----7----8----7----5-5-|
--0--0----0----0----0----0----0----0------|

----------------------------------|
----------------------------------|
----------------------------------|
------8---7---5---7---8---7---5-5-|
----------------------------------|
--0-0---0---0---0---0---0---0-----|

----------------------------------|
----------------------------------|
----------------------------------|
------8---7---5---7---8---7---5-5-|
----------------------------------|
--0-0---0---0---0---0---0---0-----|

------------------------------------------|
------------------------------------------|
------------------------------------------|
------------------------------------------|
--------8----7----5----7----8----7----5-5-|
--0--0----0----0----0----0----0----0------|

------------------------------------------|
------------------------------------------|
------------------------------------------|
------------------------------------------|
--------8----7----5----7----8----7----5-5-|
--0--0----0----0----0----0----0----0------|

----------------------------------|
----------------------------------|
----------------------------------|
------8---7---5---7---8---7---5-5-|
----------------------------------|
--0-0---0---0---0---0---0---0-----|

----------------------------------|
----------------------------------|
----------------------------------|
------8---7---5---7---8---7---5-5-|
----------------------------------|
--0-0---0---0---0---0---0---0-----|

|----------------------------------||
|----------------------------------||
|*--------------------------------*||
|*--------------------------------*||
|----------------------------------||
|---8--10--12--10--8--10--12--10---||

------------------------------------||
------------------------------------||
*----------------------------------*||
*----------------------------------*||
------------------------------------||
---10--12--14--12--10--12--14--12---||

------------------------------------||
------------------------------------||
*----------------------------------*||
*----------------------------------*||
------------------------------------||
---12--14--15--14--12--14--15--14---||

------------------------------------||
------------------------------------||
*----------------------------------*||
*----------------------------------*||
------------------------------------||
---14--15--17--15--14--15--17--15---||

------------------------------------------|
------------------------------------------|
------------------------------------------|
------------------------------------------|
--------8----7----5----7----8----7----5-5-|
--0--0----0----0----0----0----0----0------|

------------------------------------------|
------------------------------------------|
------------------------------------------|
------------------------------------------|
--------8----7----5----7----8----7----5-5-|
--0--0----0----0----0----0----0----0------|

----------------------------------|
----------------------------------|
----------------------------------|
------8---7---5---7---8---7---5-5-|
----------------------------------|
--0-0---0---0---0---0---0---0-----|

----------------------------------|
----------------------------------|
----------------------------------|
------8---7---5---7---8---7---5-5-|
----------------------------------|
--0-0---0---0---0---0---0---0-----|

------------------------------------------|
------------------------------------------|
------------------------------------------|
------------------------------------------|
--------8----7----5----7----8----7----5-5-|
--0--0----0----0----0----0----0----0------|

------------------------------------------|
------------------------------------------|
------------------------------------------|
------------------------------------------|
--------8----7----5----7----8----7----5-5-|
--0--0----0----0----0----0----0----0------|

----------------------------------|
----------------------------------|
----------------------------------|
------8---7---5---7---8---7---5-5-|
----------------------------------|
--0-0---0---0---0---0---0---0-----|

----------------------------------|
----------------------------------|
----------------------------------|
------8---7---5---7---8---7---5-5-|
----------------------------------|
--0-0---0---0---0---0---0---0-----|

|------------------------------|
|------------------------------|
|*-----------------------------|
|*--0------0----0--0----0------|
|---0--0-0-0--0-0--0--0-0--0-0-|
|---0--0-0-0--0-0--0--0-0--0-0-|

-----------------------------||
-----------------------------||
----------------------------*||
--2------2----2--2----3--2--*||
--2--2-2-2--2-2--2--2-3--2---||
--2--2-2-2--2-2--2--2-3--2---||

--------------------------|
--------------------------|
*-------------------------|
*-------------------------|
---5------5-7-8--7--5--7--|
--------------------------|

-----------------------|
-----------------------|
-----------------------|
-----------------------|
--5------5-7-5----3----|
-----------------------|

-----------------------------|
-----------------------------|
-----------------------------|
-----------------------------|
--8------8-10-12--10--8--10--|
-----------------------------|

-------------------------||
-------------------------||
------------------------*||
------------------------*||
--8------8-10-8----7-----||
-------------------------||

--------------------|-----------------------|
--------------------|-----------------------|
--------------------|-----------------------|
--------------------|-----------------------|
--0--------3--------|--2--------5--3--2--3--|
--0--------3--------|--2--------5--3--2--3--|

--------------------|-----------------------|
--------------------|-----------------------|
--------------------|-----------------------|
--------------------|-----------------------|
--0--------3--------|--2--------5--3--2--3--|
--0--------3--------|--2--------5--3--2--3--|

-------------------|-------------------|
-------------------|-------------------|
-------------------|-------------------|
-------------------|-------------------|
--0----------------|--L----------------|
--0----------------|--L----------------|

--------------------------|
--------------------------|
--------------------------|
--------------------------|
--0--0--0---------0---0---|
--0--0--0---------0---0---|

----------------------------|
----------------------------|
----------------------------|
----------------------------|
--0--0--0--0----------------|
--0--0--0--0----------------|

--------------------------|
--------------------------|
--------------------------|
--------------------------|
--0--0--0---------0---0---|
--0--0--0---------0---0---|

------------------------------|
------------------------------|
------------------------------|
------------------------------|
--0--0--0--0------------------|
--0--0--0--0------------------|

|---------------------------|
|---------------------------|
|*--------------------------|
|*--------------------------|
|---0--0--0---------0---0---|
|---0--0--0---------0---0---|

----------------------------|
----------------------------|
----------------------------|
----------------------------|
--0--0--0--0----------------|
--0--0--0--0----------------|

--------------------------|
--------------------------|
--------------------------|
--------------------------|
--0--0--0---------0---0---|
--0--0--0---------0---0---|

------------------------------||
------------------------------||
-----------------------------*||
-----------------------------*||
--0--0--0--0------------------||
--0--0--0--0------------------||

That's all I know

            
            
Suggest correction
Creating personal tab
Creating personal tab
You can edit any tab online and save it as your Personal.

You can edit, replace or remove any tab part or add personal notes – all changes will be seen only by you.

Personal tabs can be accessed anytime from any device, even offline.
Learn more »
Give kudos to tab author, rate the tab!
1 2 3 4 5
comments
print report bad tab
guest
You may want to rate the tab now too:
select rating
Wanna post a correction for this tab? Suggest correction