Oops, an error
Loading. Please wait.

Eff Those Divas - Midnight Society bass

123 views 1 this week
no commentswrite comment
1 2 3 4 5
3 more votes to show rating
add to favorites
×
Save as Personal and add changes to this tab that will be seen only by you. Learn more ›
×
You can save this tab as Personal to edit and correct it or add notes. All changes will be seen only by you. Learn more »
launch autoscroll
font size
0
reset
guitar tuner
edit
Autoscroll
slow
fast
+/-
esc
set tempo
stop
Hey everyone!
I don't know if any of you out there are Eff Those Divas fans...they broke up a while  
I just figured if anyone wants to play a sweet and fun bass part for their song midnight 
i would help them out with how i play it...not necessarily the right way

Intro
G|-----------------------------------------|
D|-----4-------4----------3-------3--------|  X9
A|-6-6---6-6-6---6----4-4---4-4-4---4------|
C|-----------------------------------------|

Verse
G|------------------------------------------|
D|-----4-------4----------3-------3---------|
A|-6-6---6-6-6---6----4-4---4-4-4---4-------|
C|------------------------------------------|
"I can't breathe, I'm in too deep...)

Chorus
G|----------------------------------------------------|
D|----------4--------4--------4---------------1-------|
A|--66666666-66666666-66666666-66666666-4-3-2---2-----|
C|----------------------------------------------------|
"I can tell from when you wake up at night..."

G|----------------------------------------------------|
D|----------3--------3--------3-----------------------|
A|--44444444-44444444-44444444-44444444---------------|
C|----------------------------------------------------|
"You've got something on you mind baby..."

G|---------------------------------------------------------------------------------|
D|-------6-4-6-4-------------------------------------------------------------------|
A|---6-4---------------------------------------------------------------------------|
C|---------------------------------------------------------------------------------|
"Somethings Got To Give..."

G|----------------------------------------------------|
D|----------4--------4--------4---------------1-------|
A|--66666666-66666666-66666666-66666666-4-3-2---2-----|
C|----------------------------------------------------|
"I'm not running..."

G|----------------------------------------------------|
D|----------3--------3--------3-----------------------|
A|--44444444-44444444-44444444-44444444---------------|
C|----------------------------------------------------|
"Bite your lip"

Bridge
G|--------------------------------|
D|--------------------------------|
A|--------------------------------|
C|-3/12-7-5-3-7-5-4-3-2-----------|

That's it...ENJOY!!

            
            
Suggest correction
Creating personal tab
Creating personal tab
You can edit any tab online and save it as your Personal.

You can edit, replace or remove any tab part or add personal notes – all changes will be seen only by you.

Personal tabs can be accessed anytime from any device, even offline.
Learn more »
Give kudos to tab author, rate the tab!
1 2 3 4 5
comments
print report bad tab
guest
You may want to rate the tab now too:
select rating
Wanna post a correction for this tab? Suggest correction