Oops, an error
Loading. Please wait.

Enview - Feels Like Home tab

19 views 1 this week
no commentswrite comment
1 2 3 4 5
3 more votes to show rating
add to favorites
×
Save as Personal and add changes to this tab that will be seen only by you. Learn more ›
×
You can save this tab as Personal to edit and correct it or add notes. All changes will be seen only by you. Learn more »
launch autoscroll
font size
0
reset
how to read this tab
guitar tuner
edit
Autoscroll
slow
fast
+/-
esc
set tempo
stop
[Intro]

e|-----------------------------------------------------------------|
B|-----------------------------------------------------------------|
G|----7---7---7-7-7-x---x-x---x-x-x-x---x---x-x-x-x---x-x---x-x-x--|        
D|----x---x---x-x-x-7---7-7---7-7-7-5---5---5-5-5-7---7-7---7-7-7--|      
A|----5---5---5-5-5-5---5-5---5-5-5-5---5---5-5-5-5---5-5---5-5-5--| x4
E|----x---x---x-x-x-x---x-x---x-x-x-5---5---5-5-5-x---x-x---x-x-x--|


[Chorus]                                               

e|-------------------------------------------------------------------|
B|-------------------------------------------------------------------|
G|-------------------------------------------------------------------|
D|----9---9---9-9-9-5---5-5---5-5-5-7---7---7-7-7-7------------------| x2
A|----9---9---9-9-9-5---5-5---5-5-5-5---5---5-5-5-7---0-0-0---0-0-0--|
E|----9---9---9-9-9-5---5-5---5-5-5-x---x---x-x-x-7---0-0-0---0-0-0--|
                                                    PM--------------|
                                                                                 
e|-------------------------------------------------------------------|
B|-------------------------------------------------------------------|
G|-------------------------------------------------------------------|
D|----9---9---9-9-9-5---5-5---5-5-5-7---7---7-7-7-7---7-7-7---7-7-7--|
A|----9---9---9-9-9-5---5-5---5-5-5-5---5---5-5-5-7---7-7-7---7-7-7--|
E|----9---9---9-9-9-5---5-5---5-5-5-x---x---x-x-x-7---7-7-7---7-7-7--|


[Verse]

e|-----------------------------------------------------------------|
B|-----------------------------------------------------------------|
G|-----------------------------------------------------------------|               
D|----7---7---7-7-7-5---5-5---5-5-5-9---9---9-9-9-5---5-5---5-5-5--|   
A|----5---5---5-5-5-5---5-5---5-5-5-9---9---9-9-9-5---5-5---5-5-5--| x4
E|----x---x---x-x-x-5---5-5---5-5-5-9---9---9-9-9-5---5-5---5-5-5--|



[Chorus]                                               

e|-------------------------------------------------------------------|
B|-------------------------------------------------------------------|
G|-------------------------------------------------------------------|
D|----9---9---9-9-9-5---5-5---5-5-5-7---7---7-7-7-7------------------| x2
A|----9---9---9-9-9-5---5-5---5-5-5-5---5---5-5-5-7---0-0-0---0-0-0--|
E|----9---9---9-9-9-5---5-5---5-5-5-x---x---x-x-x-7---0-0-0---0-0-0--|
                                                    PM--------------|
                                                                                 
e|-------------------------------------------------------------------|
B|-------------------------------------------------------------------|
G|-------------------------------------------------------------------|
D|----9---9---9-9-9-5---5-5---5-5-5-7---7---7-7-7-7---7-7-7---7-7-7--|
A|----9---9---9-9-9-5---5-5---5-5-5-5---5---5-5-5-7---7-7-7---7-7-7--|
E|----9---9---9-9-9-5---5-5---5-5-5-x---x---x-x-x-7---7-7-7---7-7-7--|


e|-------------------------------------------------------------------|
B|-------------------------------------------------------------------|
G|-------------------------------------------------------------------|
D|----9---9---9-9-9-5---5-5---5-5-5-7---7---7-7-7-7------------------| x2
A|----9---9---9-9-9-5---5-5---5-5-5-5---5---5-5-5-7---0-0-0---0-0-0--|
E|----9---9---9-9-9-5---5-5---5-5-5-x---x---x-x-x-7---0-0-0---0-0-0--|
                                                    PM--------------|
                                                                                 
e|-------------------------------------------------------------------|
B|-------------------------------------------------------------------|
G|-------------------------------------------------------------------|
D|----9---9---9-9-9-5---5-5---5-5-5-7---7---7-7-7-7---7-7-7---7-7-7--|
A|----9---9---9-9-9-5---5-5---5-5-5-5---5---5-5-5-7---7-7-7---7-7-7--|
E|----9---9---9-9-9-5---5-5---5-5-5-x---x---x-x-x-7---7-7-7---7-7-7--|


[Bridge]

(don't play) 


[Verse]

e|-----------------------------------------------------------------|
B|-----------------------------------------------------------------|
G|-----------------------------------------------------------------|               
D|----7---7---7-7-7-5---5-5---5-5-5-9---9---9-9-9-5---5-5---5-5-5--|   
A|----5---5---5-5-5-5---5-5---5-5-5-9---9---9-9-9-5---5-5---5-5-5--| x4
E|----x---x---x-x-x-5---5-5---5-5-5-9---9---9-9-9-5---5-5---5-5-5--|


[Chorus]                                               

e|-------------------------------------------------------------------|
B|-------------------------------------------------------------------|
G|-------------------------------------------------------------------|
D|----9---9---9-9-9-5---5-5---5-5-5-7---7---7-7-7-7------------------| x2
A|----9---9---9-9-9-5---5-5---5-5-5-5---5---5-5-5-7---0-0-0---0-0-0--|
E|----9---9---9-9-9-5---5-5---5-5-5-x---x---x-x-x-7---0-0-0---0-0-0--|
                                                    PM--------------|
                                                                                 
e|-------------------------------------------------------------------|
B|-------------------------------------------------------------------|
G|-------------------------------------------------------------------|
D|----9---9---9-9-9-5---5-5---5-5-5-7---7---7-7-7-7---7-7-7---7-7-7--|
A|----9---9---9-9-9-5---5-5---5-5-5-5---5---5-5-5-7---7-7-7---7-7-7--|
E|----9---9---9-9-9-5---5-5---5-5-5-x---x---x-x-x-7---7-7-7---7-7-7--|


e|-------------------------------------------------------------------|
B|-------------------------------------------------------------------|
G|-------------------------------------------------------------------|
D|----9---9---9-9-9-5---5-5---5-5-5-7---7---7-7-7-7------------------| x2
A|----9---9---9-9-9-5---5-5---5-5-5-5---5---5-5-5-7---0-0-0---0-0-0--|
E|----9---9---9-9-9-5---5-5---5-5-5-x---x---x-x-x-7---0-0-0---0-0-0--|
                                                    PM--------------|
                                                                                 
e|-------------------------------------------------------------------|
B|-------------------------------------------------------------------|
G|-------------------------------------------------------------------|
D|----9---9---9-9-9-5---5-5---5-5-5-7---7---7-7-7-7---7-7-7---7-7-7--|
A|----9---9---9-9-9-5---5-5---5-5-5-5---5---5-5-5-7---7-7-7---7-7-7--|
E|----9---9---9-9-9-5---5-5---5-5-5-x---x---x-x-x-7---7-7-7---7-7-7--|


Chorus Double Time

[Chorus]                                               

e|-------------------------------------------------------------------|
B|-------------------------------------------------------------------|
G|-------------------------------------------------------------------|
D|----9---9---9-9-9-5---5-5---5-5-5-7---7---7-7-7-7------------------| x2
A|----9---9---9-9-9-5---5-5---5-5-5-5---5---5-5-5-7---0-0-0---0-0-0--|
E|----9---9---9-9-9-5---5-5---5-5-5-x---x---x-x-x-7---0-0-0---0-0-0--|
                                                    PM--------------|
                                                                                 
e|-------------------------------------------------------------------|
B|-------------------------------------------------------------------|
G|-------------------------------------------------------------------|
D|----9---9---9-9-9-5---5-5---5-5-5-7---7---7-7-7-7---7-7-7---7-7-7--|
A|----9---9---9-9-9-5---5-5---5-5-5-5---5---5-5-5-7---7-7-7---7-7-7--|
E|----9---9---9-9-9-5---5-5---5-5-5-x---x---x-x-x-7---7-7-7---7-7-7--|


e|-------------------------------------------------------------------|
B|-------------------------------------------------------------------|
G|-------------------------------------------------------------------|
D|----9---9---9-9-9-5---5-5---5-5-5-7---7---7-7-7-7------------------| x2
A|----9---9---9-9-9-5---5-5---5-5-5-5---5---5-5-5-7---0-0-0---0-0-0--|
E|----9---9---9-9-9-5---5-5---5-5-5-x---x---x-x-x-7---0-0-0---0-0-0--|
                                                    PM--------------|
                                                                                 
e|-------------------------------------------------------------------|
B|-------------------------------------------------------------------|
G|-------------------------------------------------------------------|
D|----9---9---9-9-9-5---5-5---5-5-5-7---7---7-7-7-7---7-7-7---7-7-7--|
A|----9---9---9-9-9-5---5-5---5-5-5-5---5---5-5-5-7---7-7-7---7-7-7--|
E|----9---9---9-9-9-5---5-5---5-5-5-x---x---x-x-x-7---7-7-7---7-7-7--|



************************************

| x   Dead note
| PM  Palm mute

************************************

            
            
Suggest correction
Creating personal tab
Creating personal tab
You can edit any tab online and save it as your Personal.

You can edit, replace or remove any tab part or add personal notes – all changes will be seen only by you.

Personal tabs can be accessed anytime from any device, even offline.
Learn more »
Give kudos to tab author, rate the tab!
1 2 3 4 5
comments
print report bad tab
guest
Wanna post a correction for this tab? Suggest correction