Oops, an error
Loading. Please wait.

Epilogue - Turning Point bass

86 views 1 this week
no commentswrite comment
1 2 3 4 5
3 more votes to show rating
add to favorites
×
Save as Personal and add changes to this tab that will be seen only by you. Learn more ›
×
You can save this tab as Personal to edit and correct it or add notes. All changes will be seen only by you. Learn more »
launch autoscroll
font size
0
reset
guitar tuner
edit
Autoscroll
slow
fast
+/-
esc
set tempo
stop
Tuning: Drop C#  (C#,G#,C#,F#)

(guitar Intro)

Then:

Bass Enters (144 BPM)

F#|--------------------------------|
C#|--------------------------------|
G#|-5---------------5--------------|
C#|-0-0-0-0-0-0-0-0-0-0-0-0-0-0-0-0|

Main riff: (200 BPM)


C#|-------------------------------------------------------------------|
F#|-------------------------------------------------------------------|
G#|-------------------------------------------------------------------|
C#|-0-0-12-0-0-10-0-0-8-0-7-0-5-0-7hb-0-0-12-0-0-10-0-0-8-0-7-0-5-0-7b|


Verses: Slower (168 BPM)

F#|--------------------------------------------------------------------------|
C#|--------------------------------------------------------------------------|
G#|------------------------------------------------0h3h5-----0h3h5-----------|
C#|-0-0h3h5p0-0h3h5p0-0h3h5p0h3h5p0-0-0h3h5p0-0h3h5-----0h3h5-----0h3h5p0-0--|

------------------------------------------|
------------------------------------------|
-----------------------------(3)-(6)-(5)-0|
0h3h5p0-0-0-0h3h5p0-0-0-0h3h5-------------|

(Second time Is Bass solo)

Verses Pt.2 (168 BPM)

F#|----------------------------------------------------------------------------------|
C#|----------------------------------------------------------------------------------|
G#|----------------------------------------------------------------------------------|
C#|-(0)-0-3-(0)-(0)-0-5-(0)-(0)-0-3-(0)-(0)-0-5-(0)-(0)-0-3-(0)-(0)-0-5-(0)-(0)-0-3--|(0)

-----------------------------------------------------------------------------------------|
-----------------------------------------------------------------------------------------|
-----------------------------------------------------------------------------------------|
0-(Rest)--(0)-0-3-(0)-(0)-0-5-(0)-(0)-0-3-(0)-(0)-0-5-(0)-(0)-0-3-(0)-(0)-0-5-(0)-(6)----|

-------------------------------------|
-------------------------------------|
------14-------13-------12------11---|
12h14----11h13----10h12----9h11------|

Chorus: (168 BPM)

F#|-------------------------------------------------------------------------------------|
C#|-------------------------------------------------------------------------------------|
G#|-------------------------------------------------------------------------------------|
C#|-(0)-0-12-(0)-(0)-0-12-(0)-(0)-0-12-(0)-(0)-0-(1)-(0)-0-12-(0)-(0)-0-12-0-(15)-(14)--|

---------|
---------|
---------|
(13)-(12)-0|

Repeat chorus twice, then back to main riff

            
            
Suggest correction
Creating personal tab
Creating personal tab
You can edit any tab online and save it as your Personal.

You can edit, replace or remove any tab part or add personal notes – all changes will be seen only by you.

Personal tabs can be accessed anytime from any device, even offline.
Learn more »
Give kudos to tab author, rate the tab!
1 2 3 4 5
comments
print report bad tab
guest
Wanna post a correction for this tab? Suggest correction