Oops, an error
Loading. Please wait.

Fatal Formality - Red Riot bass

209 views 1 this week
1 commentread comment
1 2 3 4 5
3 more votes to show rating
add to favorites
×
Save as Personal and add changes to this tab that will be seen only by you. Learn more ›
×
You can save this tab as Personal to edit and correct it or add notes. All changes will be seen only by you. Learn more »
launch autoscroll
font size
0
reset
guitar tuner
edit
Autoscroll
slow
fast
+/-
esc
set tempo
stop
Author
"Red Riot"
-Fatal Formality

_Hey, i play bass for Fatal Formality and heard that some of you wanted to cover this 
so here it is. have fun   :]

Intro pt 1: (build up, then this):
G|-------|
D|-------|
A|-------|
E|-7/0---|

pt. 2

G|-----------------------------------------|
D|-----------------------------------------|
A|----------5-5-5555-----------------------|
E|7-7-7777------------5-5-5555-3-33-5-55---|

G|---------------------------------------|
D|---------------------------------------|
A|-----------5-5-5555--------------------|
E|-7-7-7777-----------55-555-555-55555---|

G|-----------------------------------------|
D|-----------------------------------------|
A|----------5-5-5555-----------------------|
E|7-7-7777------------5-5-5555-3-33-5-55---|

G|---------------------------------------------------------|
D|---------------------------------------------------------|
A|-----------5-5-5555------------10-10-10-10-10-10-10-10---|
E|-7-7-7777-----------55-555-5/----------------------------|

Verse: "One match can start a fire..."
*don't play

"grand beggars, murderers, collectors and..." thieves..."
G|------------|
D|------------|
A|------------|
E|-5g---3g-5g-|

thieves..."

*PAUSE
G|----------------|
D|----------------|
A|--------5-------|
E|-3-5-7-----5~---|

Pre-Chorus: "you better take a second look..."
G|------------------------------------------------|
D|------------------------------------------------|
A|------5-5-------------------------5-5-----------|
E|3-3---------5-5---777-555---3-3----------5-5~---| x2

Chorus: "we are the sleeping giants..."
G|-----------------------------------------|
D|-----------------------------------------|
A|----------5-5-5555-----------------------|
E|7-7-7777------------5-5-5555-3-33-5-55---|

G|---------------------------------------|
D|---------------------------------------|
A|-----------5-5-5555--------------------|
E|-7-7-7777-----------55-555-555-55555---|

G|-----------------------------------------|
D|-----------------------------------------|
A|----------5-5-5555-----------------------|
E|7-7-7777------------5-5-5555-3-33-5-55---|

G|---------------------------------|
D|---------------------------------|
A|-----------5-5-5555--------------|
E|-7-7-7777-----------55-555-55g---|

Intro 2
Verse two:
*PAUSE

G|-------------------------------------------------|
D|-------------------------------------------------|
A|-------------------------------------------------|
E|0---2h3-5---7-7-7-77-2-2-2-22-5-5-5-55-0---2h3-5-|

"we try to focus on the positive things..."
G|--------------------|
D|--------------------|
A|--------------------|
E|-5-5-5-55-0---2h3-5-|

"go getters..."
G|------------|
D|------------|
A|------------|
E|-5g---3g-5g-|

*PAUSE
G|----------------|
D|----------------|
A|--------5-------|
E|-3-5-7-----5~---|

Pre-Chorus
Chorus

Intro 2

Bridge:
*Pause

"go..."
G|-------------------------------------------------------|
D|-------------------------------------------------------|
A|-------55------------------------------55--------------|
E|-77-0-----0---5-55-5-3-33-5-55---77-0------0--5~-3~-5~-|

Chorus 2: (bass only):
G|---------------------------------------------|
D|---------------------------------------------|
A|-------5---5---------------------5---5-------|
E|-7---7-------5---5-3---5---7---7--------5~---| do until crazy chorus

Crazy Chorus:
G|------------------------------------------------------------------------|
D|------------------------------------------------------------------------|
A|----------55555555-----------------------------55555555-----------------|
E|-77777777----------55555555-3333-5555-77777777----------55-55-55-55-5/6-|

"we're here to start a riot..."
G|-----------------------------------------------------|
D|-----------------------------------------------------|
A|-------55------------------------55------------------|
E|-77-0-----0---55-0-3---5---77-0------0--5-55-55-55-5-|

"to the red riot..."
G|---------------------------------------------------------------|
D|---------------------------------------------------------------|
A|-------55------------------------55--------------------55g-----|
E|-77-0-----0---55-0-3---5---77-0------0--5-55-55-2/33g-------5~-|


enjoi  :]

            
            
Suggest correction
Creating personal tab
Creating personal tab
You can edit any tab online and save it as your Personal.

You can edit, replace or remove any tab part or add personal notes – all changes will be seen only by you.

Personal tabs can be accessed anytime from any device, even offline.
Learn more »
Give kudos to tab author, rate the tab!
1 2 3 4 5
comments
print report bad tab
1 comment total.
0 reply
j_williams85 10 Mar 31, 2010 03:10 PM

Can You get the guitar tab up.
GREAT SONG,GREAT BAND

guest
You may want to rate the tab now too:
select rating
Wanna post a correction for this tab? Suggest correction