Oops, an error
Loading. Please wait.

For All We Know - Jesus In The Southern Sky tab

version 2
version 2

Whole song

3,080 views 1 this week
no commentswrite comment
1 2 3 4 5
2 more votes to show rating
add to favorites
×
Save as Personal and add changes to this tab that will be seen only by you. Learn more ›
×
You can save this tab as Personal to edit and correct it or add notes. All changes will be seen only by you. Learn more »
launch autoscroll
font size
0
reset
how to read this tab
guitar tuner
edit
Autoscroll
slow
fast
+/-
esc
set tempo
stop
Author
I have no idea why For All We Know isn't on ultimate-guitar, i checked and there is one 
so :\ (shrugs) i'll just post it still.

Firstly i'm posting this coz there its so hard to find a tab/chord for this song, and 
this is my first tab.. Its just the intro and one line but these chords can be used to 
the whole song.. I think its correct( sounds like the one on youtube).
Pretty sure its right though.
Please rate so i'll know whether its correct, thanks.
all the 0 in the chords i'm not sure, so its up to you to try it out.


Chords used
e|--0----0----0----0----0-------|
b|--0----0----0----0----0-------|
g|--8----11---6----5----2----4--|
d|--9----9----7----6----2----5--|
a|--9----9----7----6----2----5--|
E|--7----7----5----4----0-------|

Standard tuning
Intro
e|----0----0----0----0----0----|
b|----0----0----0----0----0----|
g|----8----11---6----5----2----|
d|----9----9----7----6----2----|
a|----9----9----7----6----2----|
E|----7----7----5----4----0----|

first line  - "jesus i can see you in the southern sky"
e|----0----0----0----0----0---------0----|
b|----0----0----0----0----0---------0----|
d|----8----6----6----5----0----4----6----|
g|----9----9----7----6----2----5----7----|
a|----9----9----7----6----2----5----7----|
E|----7---11----5----4----2---------5----|

The rest of the song just play around till you get it.
sorry but i'll update this someother time , if this tab is good..

            
            
Suggest correction
Creating personal tab
Creating personal tab
You can edit any tab online and save it as your Personal.

You can edit, replace or remove any tab part or add personal notes – all changes will be seen only by you.

Personal tabs can be accessed anytime from any device, even offline.
Learn more »
Give kudos to tab author, rate the tab!
1 2 3 4 5
comments
print report bad tab
guest
You may want to rate the tab now too:
select rating
Wanna post a correction for this tab? Suggest correction