Oops, an error
Loading. Please wait.

Freda Payne - Band Of Gold bass

5,554 views 1 this week
no commentswrite comment
1 2 3 4 5
1 last vote to show rating
add to favorites
×
Save as Personal and add changes to this tab that will be seen only by you. Learn more ›
×
You can save this tab as Personal to edit and correct it or add notes. All changes will be seen only by you. Learn more »
launch autoscroll
font size
0
reset
guitar tuner
edit
Autoscroll
slow
fast
+/-
esc
set tempo
stop
Author
Band of Gold
Written: Holland Dozier Holland
Bassist: Bob Babbitt

This was the first number one hit for this famous writering
trio after they left motown and set up their own record
label Invictus in September 1970. 5 weeks at number one

Tabbed by bass50611: Listen for the syncopation, there is lots and lots
Might not be exact but it fits like a glove.
Any comments e-mail me at goldenoldie.benson@sky.com

Intro:
G----------------------------------------------------------------|
D-----5-3-------------5-3-------------5-3------------5-3---------|
A---------5-3-------------5-3-------------5-3------------5-3-----|
E---3----------4----3----------4----3---------4----3---------4---|

Verse/Chorus Riff:
G-------------------------------------------------------------|
D-----5-2-------5--4--------4-2-00---2-44--2--0---------------|
A---------5-2-5-------5-2-5---------------------0-2--3-0------|
E---3----------------------------------------------------33---|

G--------------------------------------------------------------|
D--------------------------------------------------------------|
A-----0-2-0-------0--2-2---22-3-2-0-----0-2-2---0-2-5-5-5555---|
E---3-------3---3-------------------33-------------------------|

Instrumental Riff:
G-------------------------------------------------------------|
D-----5-2-------5--4--------4-2-00---2-44--2--0---------------|
A---------5-2-5-------5-2-5---------------------0-2--3-0------|
E---3----------------------------------------------------33---|

G------------------|
D------------------|
A-----0-2-0--------|
E---3-------3-33---|

Bass Lead Back Into Verse:
G----------------------------------------------------------------|
D-----5-3-------------5-3-------------5-3------------5-3---------|
A----------5-3-------------5-3------------5-3------------5-3-----|
E---3----------4----3----------4----3---------4----3---------4---|

Repeat Verse/Chorus Riff to Fade

HAVE FUN!

            
            
Suggest correction
Creating personal tab
Creating personal tab
You can edit any tab online and save it as your Personal.

You can edit, replace or remove any tab part or add personal notes – all changes will be seen only by you.

Personal tabs can be accessed anytime from any device, even offline.
Learn more »
Give kudos to tab author, rate the tab!
1 2 3 4 5
comments
print report bad tab
guest
You may want to rate the tab now too:
select rating
Wanna post a correction for this tab? Suggest correction