Oops, an error
Loading. Please wait.

Frog Leap Studios - Eye Of The Tiger tab

1,105 views 12 this week
no commentswrite comment
1 2 3 4 5
3 more votes to show rating
add to favorites
×
Save as Personal and add changes to this tab that will be seen only by you. Learn more ›
×
You can save this tab as Personal to edit and correct it or add notes. All changes will be seen only by you. Learn more »
launch autoscroll
font size
0
reset
how to read this tab
guitar tuner
edit
Autoscroll
slow
fast
+/-
esc
set tempo
stop
-------------------------------------------------------------------------------------
                             Eye Of The Tiger - Frog Leaps Studios
-------------------------------------------------------------------------------------
Tabbed by: Bart Baart
Tuning: Drop A#


[Intro]

(Guitar 1)
c |-----------------|-----------------|-----------------|-----------------|
g |-----------------|-----------------|-----------------|-----------------|
d#|-----------------|-----------------|-----------------|-----------------|
a#|-----------------|-----------------|-----------------|-----------------|
f |-3-3-3-3-3-3-3-3-|-3-3-3-3-3-3-3-3-|-3-3-3-3-3-3-3-3-|-3-3-3-3-3-3-3-3-|
a#|-----------------|-----------------|-----------------|-----------------|  2X


[Verse 1]

(Guitar 1)
c |-----------------|-----------------|-----------------|-----------------|
g |-----------------|-----------------|-----------------|-----------------|
d#|-----------------|-----------------|-----------------|-----------------|
a#|-----------------|-----------------|-----------------|-----------------|
f |-3-3-3-3-3-3-3-3-|-3-3-3-3-3-3-3-3-|-3-3-3-3-3-3-3-3-|-3-3-3-3-3-3-3-3-|
a#|-----------------|-----------------|-----------------|-----------------|  4X

(Guitar 2)
c |----------|-----------|----------|-----------|----------|-----------|----------|---------|
g |----------|-----------|----------|-----------|----------|-----------|----------|---------|
d#|----------|-----------|----------|-----------|----------|-----------|-5--------|---------|
a#|-2--------|-----2--0--|-2--------|-----2--0--|-2--------|-----2--0--|-5--------|---------|
f |-2--------|-----2--0--|-2--------|-----2--0--|-2--------|-----2--0--|-3--------|---------|
a#|-2--------|-----2--0--|-2--------|-----2--0--|-2--------|-----2--0--|----------|---------|  2X


[Verse 2]

(Guitar 2)
c |-----------|-------------|-----------|-------------|
g |-----------|-------------|-----------|-------------|
d#|-----------|-------------|-----------|-------------|
a#|-2----x----|-x--x--2--0--|-2----x----|-x--x--2--0--|
f |-2----x----|-x--x--2--0--|-2----x----|-x--x--2--0--|
a#|-2----x----|-x--x--2--0--|-2----x----|-x--x--2--0--|

c |-----------|-------------|-----------|--------------|
g |-----------|-------------|-----------|--------------|
d#|-----------|-------------|-5----5----|-5--5--5-5--5-|
a#|-2----x----|-x--x--2--0--|-5----5----|-5--5--5-5--5-|
f |-2----x----|-x--x--2--0--|-3----3----|-3--3--3-3--3-|
a#|-2----x----|-x--x--2--0--|-----------|--------------|  2X


[Break]

(Guitar 2) 
c |----------|---------|---------|---------|
g |----------|---------|---------|---------|
d#|----------|---------|---------|---------|
a#|-2--------|---------|---------|---------|
f |-2--------|---------|---------|---------|
a#|-2--------|---------|---------|---------|


[Pre-Chorus]

(Guitar 1) 
c |-----------------|-----------------|-----------------|-----------------|
g |-----------------|-----------------|-----------------|-----------------|
d#|-----------------|-----------------|-----------------|-----------------|
a#|-----------------|-----------------|-----------------|-----------------|
f |-----------------|-----------------|-3-3-3-3-3-3-3-3-|-3-3-3-3-3-3-3-3-|
a#|-2-2-2-2-2-2-2-2-|-2-2-2-2-2-2-2-2-|-----------------|-----------------|

c |-----------------|-----------------|-----------------|-----------------|
g |-----------------|-----------------|-----------------|-----------------|
d#|-----------------|-----------------|-----------------|-----------------|
a#|-0-0-0-0-0-0-0-0-|-0-0-0-0-0-0-0-0-|-----------------|-----------------|
f |-----------------|-----------------|-----------------|-----------------|
a#|-----------------|-----------------|-2-2-2-2-2-2-2-2-|-2-2-2-2-2-2-2-2-|  4X

(Guitar 2) 
c |---------|---------|---------|---------|---------|---------|----------|-----------|
g |---------|---------|---------|---------|---------|---------|----------|-----------|
d#|---------|---------|---------|---------|---------|---------|----------|-----------|
a#|---------|---------|---------|---------|---------|---------|-------2--|-0--2------|
f |---------|---------|---------|---------|---------|---------|-------2--|-0--2------|
a#|---------|---------|---------|---------|---------|---------|-------2--|-0--2------|  4X



[Chorus]

(Guitar 2) 
c |------------|--------------|------------|-------------|
g |------------|--------------|------------|-------------|
d#|------------|--------------|------------|-------------|
a#|-7----7---7-|-7--7-7--7--7-|-5----5---5-|-0--0-0--0---|
f |-7----7---7-|-7--7-7--7--7-|-5----5---5-|-0--0-0--0---|
a#|-7----7---7-|-7--7-7--7--7-|-5----5---5-|-0--0-0--0---|

c |------------|--------------|-----------|------------|
g |------------|--------------|-----------|------------|
d#|------------|--------------|-----------|------------|
a#|-7----7---7-|-7--7-7--7--7-|-5------5--|-0----0--0--|
f |-7----7---7-|-7--7-7--7--7-|-5------5--|-0----0--0--|
a#|-7----7---7-|-7--7-7--7--7-|-5------5--|-0----0--0--|

c |------------|--------------|------------|-------------|------------|------------|-----------|---------|
g |------------|--------------|------------|-------------|------------|------------|-----------|---------|
d#|------------|--------------|------------|-------------|------------|------------|-----------|---------|
a#|-7----7---7-|-7--7-7--7--7-|-5----5---5-|-0--0-0--0---|-7----7---7-|-9----9---9-|-10--------|---------|
f |-7----7---7-|-7--7-7--7--7-|-5----5---5-|-0--0-0--0---|-7----7---7-|-9----9---9-|-10--------|---------|
a#|-7----7---7-|-7--7-7--7--7-|-5----5---5-|-0--0-0--0---|-7----7---7-|-9----9---9-|-10--------|---------| 4X

[Verse 3]

(Guitar 2) 
c |--------------|-----------------|-----------------|-----------------|
g |--------------|-----------------|-----------------|-----------------|
d#|--------------|-----------------|-----------------|-----------------|
a#|-2----x-x-x-x-|-x-x-x-x-x-x-x-x-|-x-x-x-x-x-x-x-x-|-x-x-x-x-x-x-x-x-|
f |-2----x-x-x-x-|-x-x-x-x-x-x-x-x-|-x-x-x-x-x-x-x-x-|-x-x-x-x-x-x-x-x-|
a#|-2----x-x-x-x-|-x-x-x-x-x-x-x-x-|-x-x-x-x-x-x-x-x-|-x-x-x-x-x-x-x-x-|


[Pre-Chorus]

(Guitar 1) 
c |-----------------|-----------------|-----------------|-----------------|
g |-----------------|-----------------|-----------------|-----------------|
d#|-----------------|-----------------|-----------------|-----------------|
a#|-----------------|-----------------|-----------------|-----------------|
f |-----------------|-----------------|-3-3-3-3-3-3-3-3-|-3-3-3-3-3-3-3-3-|
a#|-2-2-2-2-2-2-2-2-|-2-2-2-2-2-2-2-2-|-----------------|-----------------|

c |-----------------|-----------------|-----------------|-----------------|
g |-----------------|-----------------|-----------------|-----------------|
d#|-----------------|-----------------|-----------------|-----------------|
a#|-0-0-0-0-0-0-0-0-|-0-0-0-0-0-0-0-0-|-----------------|-----------------|
f |-----------------|-----------------|-----------------|-----------------|
a#|-----------------|-----------------|-2-2-2-2-2-2-2-2-|-2-2-2-2-2-2-2-2-|

(Guitar 2) 
c |---------|---------|---------|---------|---------|---------|----------|-----------|
g |---------|---------|---------|---------|---------|---------|----------|-----------|
d#|---------|---------|---------|---------|---------|---------|----------|-----------|
a#|---------|---------|---------|---------|---------|---------|-------2--|-0--2------|
f |---------|---------|---------|---------|---------|---------|-------2--|-0--2------|
a#|---------|---------|---------|---------|---------|---------|-------2--|-0--2------|


[Chorus]

(Guitar 2) 
c |------------|--------------|------------|-------------|
g |------------|--------------|------------|-------------|
d#|------------|--------------|------------|-------------|
a#|-7----7---7-|-7--7-7--7--7-|-5----5---5-|-0--0-0--0---|
f |-7----7---7-|-7--7-7--7--7-|-5----5---5-|-0--0-0--0---|
a#|-7----7---7-|-7--7-7--7--7-|-5----5---5-|-0--0-0--0---|

c |------------|--------------|-----------|------------|
g |------------|--------------|-----------|------------|
d#|------------|--------------|-----------|------------|
a#|-7----7---7-|-7--7-7--7--7-|-5------5--|-0----0--0--|
f |-7----7---7-|-7--7-7--7--7-|-5------5--|-0----0--0--|
a#|-7----7---7-|-7--7-7--7--7-|-5------5--|-0----0--0--|

c |------------|--------------|------------|-------------|------------|------------|-----------|---------|
g |------------|--------------|------------|-------------|------------|------------|-----------|---------|
d#|------------|--------------|------------|-------------|------------|------------|-----------|---------|
a#|-7----7---7-|-7--7-7--7--7-|-5----5---5-|-0--0-0--0---|-7----7---7-|-9----9---9-|-10--------|---------|
f |-7----7---7-|-7--7-7--7--7-|-5----5---5-|-0--0-0--0---|-7----7---7-|-9----9---9-|-10--------|---------|
a#|-7----7---7-|-7--7-7--7--7-|-5----5---5-|-0--0-0--0---|-7----7---7-|-9----9---9-|-10--------|---------|


[Verse 2]

(Guitar 2) 
c |-----------|-------------|-----------|-------------|
g |-----------|-------------|-----------|-------------|
d#|-----------|-------------|-----------|-------------|
a#|-2----x----|-x--x--2--0--|-2----x----|-x--x--2--0--|
f |-2----x----|-x--x--2--0--|-2----x----|-x--x--2--0--|
a#|-2----x----|-x--x--2--0--|-2----x----|-x--x--2--0--|

c |-----------|-------------|-----------|--------------|
g |-----------|-------------|-----------|--------------|
d#|-----------|-------------|-5----5----|-5--5--5-5--5-|
a#|-2----x----|-x--x--2--0--|-5----5----|-5--5--5-5--5-|
f |-2----x----|-x--x--2--0--|-3----3----|-3--3--3-3--3-|
a#|-2----x----|-x--x--2--0--|-----------|--------------|  2X


[Guitar Breakdown] 

(guitar 1: plays a solo)

(Guitar 2) 
c |-----------|------------|-----------|--------------|
g |-----------|------------|-----------|--------------|
d#|-----------|------------|-----------|--------------|
a#|-5----2----|-2--2----5--|---2----2--|-2----2-4-5-2-|
f |-5----2----|-2--2----5--|---2----2--|-2------------|
a#|-5----2----|-2--2----5--|---2----2--|-2------------|  14X


[Break]


[Pre-Chorus]

(Guitar 1) 
c |-----------------|-----------------|-----------------|-----------------|
g |-----------------|-----------------|-----------------|-----------------|
d#|-----------------|-----------------|-----------------|-----------------|
a#|-----------------|-----------------|-----------------|-----------------|
f |-----------------|-----------------|-3-3-3-3-3-3-3-3-|-3-3-3-3-3-3-3-3-|
a#|-2-2-2-2-2-2-2-2-|-2-2-2-2-2-2-2-2-|-----------------|-----------------|

c |-----------------|-----------------|-----------------|-----------------|
g |-----------------|-----------------|-----------------|-----------------|
d#|-----------------|-----------------|-----------------|-----------------|
a#|-0-0-0-0-0-0-0-0-|-0-0-0-0-0-0-0-0-|-----------------|-----------------|
f |-----------------|-----------------|-----------------|-----------------|
a#|-----------------|-----------------|-2-2-2-2-2-2-2-2-|-2-2-2-2-2-2-2-2-|  2X

(Guitar 2) 
c |---------|---------|---------|---------|---------|---------|----------|-----------|
g |---------|---------|---------|---------|---------|---------|----------|-----------|
d#|---------|---------|---------|---------|---------|---------|----------|-----------|
a#|---------|---------|---------|---------|---------|---------|-------2--|-0--2------|
f |---------|---------|---------|---------|---------|---------|-------2--|-0--2------|
a#|---------|---------|---------|---------|---------|---------|-------2--|-0--2------|
 2X


[Chorus]

(Guitar 2) 
c |------------|--------------|------------|-------------|
g |------------|--------------|------------|-------------|
d#|------------|--------------|------------|-------------|
a#|-7----7---7-|-7--7-7--7--7-|-5----5---5-|-0--0-0--0---|
f |-7----7---7-|-7--7-7--7--7-|-5----5---5-|-0--0-0--0---|
a#|-7----7---7-|-7--7-7--7--7-|-5----5---5-|-0--0-0--0---|

c |------------|--------------|-----------|------------|
g |------------|--------------|-----------|------------|
d#|------------|--------------|-----------|------------|
a#|-7----7---7-|-7--7-7--7--7-|-5------5--|-0----0--0--|
f |-7----7---7-|-7--7-7--7--7-|-5------5--|-0----0--0--|
a#|-7----7---7-|-7--7-7--7--7-|-5------5--|-0----0--0--|

c |------------|--------------|------------|-------------|------------|------------|-----------|---------|
g |------------|--------------|------------|-------------|------------|------------|-----------|---------|
d#|------------|--------------|------------|-------------|------------|------------|-----------|---------|
a#|-7----7---7-|-7--7-7--7--7-|-5----5---5-|-0--0-0--0---|-7----7---7-|-9----9---9-|-10--------|---------|
f |-7----7---7-|-7--7-7--7--7-|-5----5---5-|-0--0-0--0---|-7----7---7-|-9----9---9-|-10--------|---------|
a#|-7----7---7-|-7--7-7--7--7-|-5----5---5-|-0--0-0--0---|-7----7---7-|-9----9---9-|-10--------|---------|


[Verse 2]

(Guitar 2) 
c |-----------|-------------|-----------|-------------|
g |-----------|-------------|-----------|-------------|
d#|-----------|-------------|-----------|-------------|
a#|-2----x----|-x--x--2--0--|-2----x----|-x--x--2--0--|
f |-2----x----|-x--x--2--0--|-2----x----|-x--x--2--0--|
a#|-2----x----|-x--x--2--0--|-2----x----|-x--x--2--0--|

c |-----------|-------------|-----------|--------------|
g |-----------|-------------|-----------|--------------|
d#|-----------|-------------|-5----5----|-5--5--5-5--5-|
a#|-2----x----|-x--x--2--0--|-5----5----|-5--5--5-5--5-|
f |-2----x----|-x--x--2--0--|-3----3----|-3--3--3-3--3-|
a#|-2----x----|-x--x--2--0--|-----------|--------------|  4X


[Outro]

(Guitar 2) 
c |---------|----------|-----------|
g |---------|----------|-----------|
d#|---------|----------|-----------|
a#|---------|-------2--|-0--2------|
f |---------|-------2--|-0--2------|
a#|---------|-------2--|-0--2------|



*******************
|x     Dead note
*******************

            
            
Suggest correction
Creating personal tab
Creating personal tab
You can edit any tab online and save it as your Personal.

You can edit, replace or remove any tab part or add personal notes – all changes will be seen only by you.

Personal tabs can be accessed anytime from any device, even offline.
Learn more »
Give kudos to tab author, rate the tab!
1 2 3 4 5
comments
print report bad tab
guest
You may want to rate the tab now too:
select rating
Wanna post a correction for this tab? Suggest correction