Oops, an error
Loading. Please wait.

Frog Leap Studios - Last Christmas tab

124 views 3 this week
no commentswrite comment
1 2 3 4 5
3 more votes to show rating
add to favorites
×
Save as Personal and add changes to this tab that will be seen only by you. Learn more ›
×
You can save this tab as Personal to edit and correct it or add notes. All changes will be seen only by you. Learn more »
launch autoscroll
font size
0
reset
how to read this tab
guitar tuner
edit
Autoscroll
slow
fast
+/-
esc
set tempo
stop
About this tab version
This version is based on the Metal Cover by Leo Moracchioli. Was this info helpful? Yes No
Tuning: Drop A

[Intro]
(begin with 4 Christmas bells then play the following)
B |-------------------|--------------------|-------------------|--------------------|
F#|-10-10-10-8-8-8-8--|-10-10-10-8-8-12-12-|-10-10-10-8-8-8-8--|-10-10-10-8-8-12-12-|
D |-------------------|--------------------|-------------------|--------------------|
A |-7--7--7--5-5-5-5--|-7--7--7--5-5-9--9--|-7--7--7--5-5-5-5--|-7--7--7--5-5-9--9--|
E |-------------------|--------------------|-------------------|--------------------|
A |-------------------|--------------------|-------------------|--------------------|

B |-10-10-10-8-8-8-8--|-10-10-10-8-8-10-10-|-7-7-7-5-5-5-5--|-7-7-7-5-5-7-7-|
F#|-------------------|--------------------|----------------|---------------|
D |-7--7--7--5-5-5-5--|-7--7--7--5-5-7--7--|-4-4-4-2-2-2-2--|-4-4-4-2-2-4-4-|
A |-------------------|--------------------|----------------|---------------|
E |-------------------|--------------------|----------------|---------------|
A |-------------------|--------------------|----------------|---------------|

[Verse 1]
(Guitar 1)
B |------------|----------------|-------------|---------|
F#|-3----15----|-8--------------|-10---8-9----|---------|
D |------------|---------7-9-10-|-------------|---------|
A |------------|------10--------|-------------|---------|
E |------------|----------------|-------------|---------|
A |------------|----------------|-------------|---------|

B |-10--8---------|----------|-12--10----------|----------|
F#|--------10--8--|----------|---------13--10--|-8--------|
D |---------------|-9--------|-----------------|----------|
A |---------------|----------|-----------------|----------|
E |---------------|----------|-----------------|----------|
A |---------------|----------|-----------------|----------|

(Guitar 2)
B |-----------------|-----------------|-----------------|-----------------|
F#|-----------------|-----------------|-----------------|-----------------|
D |-----------------|-----------------|-----------------|-----------------|
A |-----------------|-----------------|-----------------|-----------------|
E |-----------------|-----------------|-----------------|-----------------|
A |-5-x-x-5-x-5-x-x-|-5-x-x-5-5-5-4-3-|-2-x-x-2-x-2-x-x-|-2-x-x-2-2-2-2-2-|

B |-----------------|-----------------|-----------------|-------------------|
F#|-----------------|-----------------|-----------------|-------------------|
D |-----------------|-----------------|-----------------|-------------------|
A |-----------------|-----------------|-----------------|-------------------|
E |-----------------|-----------------|-----------------|-------------------|
A |-7-x-x-7-x-7-x-x-|-7-x-x-7-7-7-7-7-|-0-x-x-0-x-0-x-x-|-0-x-x-0-5+-0-7+-0-|

[Verse 2]
B |-----------------|-----------------|-----------------|-----------------|
F#|-----------------|-----------------|-----------------|-----------------|
D |-----------------|-----------------|-----------------|-----------------|
A |-----------------|-----------------|-----------------|-----------------|
E |-----------------|-----------------|-----------------|-----------------|
A |-5-x-x-5-x-5-x-x-|-5-x-x-5-5-5-4-3-|-2-x-x-2-x-2-x-x-|-2-x-x-2-2-2-2-2-|

B |-----------------|-----------------|-----------------|-------------------|
F#|-----------------|-----------------|-----------------|-------------------|
D |-----------------|-----------------|-----------------|-------------------|
A |-----------------|-----------------|-----------------|-------------------|
E |-----------------|-----------------|-----------------|-------------------|
A |-7-x-x-7-x-7-x-x-|-7-x-x-7-7-7-7-7-|-0-x-x-0-x-0-x-x-|-0-x-x-0-5+-0-7+-0-|

[Chorus]
(Guitar 1)
B |-------------------|--------------------|-------------------|--------------------|
F#|-10-10-10-8-8-8-8--|-10-10-10-8-8-12-12-|-10-10-10-8-8-8-8--|-10-10-10-8-8-12-12-|
D |-------------------|--------------------|-------------------|--------------------|
A |-7--7--7--5-5-5-5--|-7--7--7--5-5-9--9--|-7--7--7--5-5-5-5--|-7--7--7--5-5-9--9--|
E |-------------------|--------------------|-------------------|--------------------|
A |-------------------|--------------------|-------------------|--------------------|

B |-10-10-10-8-8-8-8--|-10-10-10-8-8-10-10-|-7-7-7-5-5-5-5--|-7-7-7-5-5-7-7-|
F#|-------------------|--------------------|----------------|---------------|
D |-7--7--7--5-5-5-5--|-7--7--7--5-5-7--7--|-4-4-4-2-2-2-2--|-4-4-4-2-2-4-4-|
A |-------------------|--------------------|----------------|---------------|
E |-------------------|--------------------|----------------|---------------|
A |-------------------|--------------------|----------------|---------------|

(Guitar 2)
B |-----------------|-----------------|-----------------|-----------------|
F#|-----------------|-----------------|-----------------|-----------------|
D |-----------------|-----------------|-----------------|-----------------|
A |-5-5-5-5-5-5-5-5-|-5-5-5-5-5-5-4-3-|-2-2-2-2-2-2-2-2-|-2-2-2-2-2-2-2-2-|
E |-5-5-5-5-5-5-5-5-|-5-5-5-5-5-5-4-3-|-2-2-2-2-2-2-2-2-|-2-2-2-2-2-2-2-2-|
A |-5-5-5-5-5-5-5-5-|-5-5-5-5-5-5-4-3-|-2-2-2-2-2-2-2-2-|-2-2-2-2-2-2-2-2-|

B |-----------------|-----------------|-----------------|-----------------|
F#|-----------------|-----------------|-----------------|-----------------|
D |-----------------|-----------------|-----------------|-----------------|
A |-7-7-7-7-7-7-7-7-|-7-7-7-7-7-7-7-7-|-0-0-0-0-0-0-0-0-|-0-0-0-0-0-0-0-0-|
E |-7-7-7-7-7-7-7-7-|-7-7-7-7-7-7-7-7-|-0-0-0-0-0-0-0-0-|-0-0-0-0-0-0-0-0-|
A |-7-7-7-7-7-7-7-7-|-7-7-7-7-7-7-7-7-|-0-0-0-0-0-0-0-0-|-0-0-0-0-0-0-0-0-|

[Verse 2]
B |-----------------|-----------------|-----------------|-----------------|
F#|-----------------|-----------------|-----------------|-----------------|
D |-----------------|-----------------|-----------------|-----------------|
A |-----------------|-----------------|-----------------|-----------------|
E |-----------------|-----------------|-----------------|-----------------|
A |-5-x-x-5-x-5-x-x-|-5-x-x-5-5-5-4-3-|-2-x-x-2-x-2-x-x-|-2-x-x-2-2-2-2-2-|

B |-----------------|-----------------|-----------------|-------------------|
F#|-----------------|-----------------|-----------------|-------------------|
D |-----------------|-----------------|-----------------|-------------------|
A |-----------------|-----------------|-----------------|-------------------|
E |-----------------|-----------------|-----------------|-------------------|
A |-7-x-x-7-x-7-x-x-|-7-x-x-7-7-7-7-7-|-0-x-x-0-x-0-x-x-|-0-x-x-0-5+-0-7+-0-|

[Verse 3]
B |-----------------|-----------------|-----------------|-----------------|
F#|-----------------|-----------------|-----------------|-----------------|
D |-----------------|-----------------|-----------------|-----------------|
A |-5-x-x-x-x-x-x-x-|-x-x-x-x-4-5-4-5-|-2-x-x-x-x-x-x-x-|-x-x-x-x-x-x-x-2-|
E |-5-x-x-x-x-x-x-x-|-x-x-x-x-4-5-4-5-|-2-x-x-x-x-x-x-x-|-x-x-x-x-x-x-x-2-|
A |-5-x-x-x-x-x-x-x-|-x-x-x-x-4-5-4-5-|-2-x-x-x-x-x-x-x-|-x-x-x-x-x-x-x-2-|

B |------------|------------|------------|---------------|
F#|------------|------------|------------|---------------|
D |------------|------------|------------|---------------|
A |-7---7--7---|-7---7--7---|-0---0--0---|-0---0---0---0-|
E |-7---7--7---|-7---7--7---|-0---0--0---|-0---0---0---0-|
A |-7---7--7---|-7---7--7---|-0---0--0---|-0---0-5-0-7-0-|

[Chorus]
(Guitar 1)
B |-------------------|--------------------|-------------------|--------------------|
F#|-10-10-10-8-8-8-8--|-10-10-10-8-8-12-12-|-10-10-10-8-8-8-8--|-10-10-10-8-8-12-12-|
D |-------------------|--------------------|-------------------|--------------------|
A |-7--7--7--5-5-5-5--|-7--7--7--5-5-9--9--|-7--7--7--5-5-5-5--|-7--7--7--5-5-9--9--|
E |-------------------|--------------------|-------------------|--------------------|
A |-------------------|--------------------|-------------------|--------------------|

B |-10-10-10-8-8-8-8--|-10-10-10-8-8-10-10-|-7-7-7-5-5-5-5--|-7-7-7-5-5-7-7-|
F#|-------------------|--------------------|----------------|---------------|
D |-7--7--7--5-5-5-5--|-7--7--7--5-5-7--7--|-4-4-4-2-2-2-2--|-4-4-4-2-2-4-4-|
A |-------------------|--------------------|----------------|---------------|
E |-------------------|--------------------|----------------|---------------|
A |-------------------|--------------------|----------------|---------------|

(Guitar 2)
B |-----------------|-----------------|-----------------|-----------------|
F#|-----------------|-----------------|-----------------|-----------------|
D |-----------------|-----------------|-----------------|-----------------|
A |-5-5-5-5-5-5-5-5-|-5-5-5-5-5-5-4-3-|-2-2-2-2-2-2-2-2-|-2-2-2-2-2-2-2-2-|
E |-5-5-5-5-5-5-5-5-|-5-5-5-5-5-5-4-3-|-2-2-2-2-2-2-2-2-|-2-2-2-2-2-2-2-2-|
A |-5-5-5-5-5-5-5-5-|-5-5-5-5-5-5-4-3-|-2-2-2-2-2-2-2-2-|-2-2-2-2-2-2-2-2-|

B |-----------------|-----------------|-----------------|-----------------|
F#|-----------------|-----------------|-----------------|-----------------|
D |-----------------|-----------------|-----------------|-----------------|
A |-7-7-7-7-7-7-7-7-|-7-7-7-7-7-7-7-7-|-0-0-0-0-0-0-0-0-|-0-0-0-0-0-0-0-0-|
E |-7-7-7-7-7-7-7-7-|-7-7-7-7-7-7-7-7-|-0-0-0-0-0-0-0-0-|-0-0-0-0-0-0-0-0-|
A |-7-7-7-7-7-7-7-7-|-7-7-7-7-7-7-7-7-|-0-0-0-0-0-0-0-0-|-0-0-0-0-0-0-0-0-|

[Verse 2]
B |-----------------|-----------------|-----------------|-----------------|
F#|-----------------|-----------------|-----------------|-----------------|
D |-----------------|-----------------|-----------------|-----------------|
A |-----------------|-----------------|-----------------|-----------------|
E |-----------------|-----------------|-----------------|-----------------|
A |-5-x-x-5-x-5-x-x-|-5-x-x-5-5-5-4-3-|-2-x-x-2-x-2-x-x-|-2-x-x-2-2-2-2-2-|

B |-----------------|-----------------|-----------------|-------------------|
F#|-----------------|-----------------|-----------------|-------------------|
D |-----------------|-----------------|-----------------|-------------------|
A |-----------------|-----------------|-----------------|-------------------|
E |-----------------|-----------------|-----------------|-------------------|
A |-7-x-x-7-x-7-x-x-|-7-x-x-7-7-7-7-7-|-0-x-x-0-x-0-x-x-|-0-x-x-0-5+-0-7+-0-|

[Bridge]
B |---------------|-------------|---------------|----------------|
F#|---------------|-------------|---------------|----------------|
D |-----------3-3-|-------------|-----------3-3-|----------------|
A |-5-5--2-2--3-3-|--3-3--------|-5-5--2-2--3-3-|--3-3-----------|
E |-5-5--2-2--1-1-|--3-3--------|-5-5--2-2--1-1-|--3-3----2+-----|
A |-5-5--2-2------|--3-3--0-2---|-5-5--2-2------|--3-3--0----2---| (x4)

[Breakdown] 
(zipper thing plays a melody)
B |-----------------|-----------------|
F#|-----------------|-----------------|
D |-----------------|-----------------|
A |-5-5-2-2-2-2-2-2-|---------2-2-2-2-|
E |-----------------|-1-1-1-1---------|
A |-----------------|-----------------| (x4)

[Pre-Chorus]
(Guitar 1)
B |-------------------|--------------------|-------------------|--------------------|
F#|-10-10-10-8-8-8-8--|-10-10-10-8-8-12-12-|-10-10-10-8-8-8-8--|-10-10-10-8-8-12-12-|
D |-------------------|--------------------|-------------------|--------------------|
A |-7--7--7--5-5-5-5--|-7--7--7--5-5-9--9--|-7--7--7--5-5-5-5--|-7--7--7--5-5-9--9--|
E |-------------------|--------------------|-------------------|--------------------|
A |-------------------|--------------------|-------------------|--------------------|

B |-10-10-10-8-8-8-8--|-10-10-10-8-8-10-10-|-7-7-7-5-5-5-5--|-7-7-7-5-5-7-7-|
F#|-------------------|--------------------|----------------|---------------|
D |-7--7--7--5-5-5-5--|-7--7--7--5-5-7--7--|-4-4-4-2-2-2-2--|-4-4-4-2-2-4-4-|
A |-------------------|--------------------|----------------|---------------|
E |-------------------|--------------------|----------------|---------------|
A |-------------------|--------------------|----------------|---------------|

(Guitar 2)
B |-----------------|-----------------|-----------------|-----------------|
F#|-----------------|-----------------|-----------------|-----------------|
D |-----------------|-----------------|-----------------|-----------------|
A |-5-x-x-5-x-5-x-x-|-5-x-x-5-4-5-4-5-|-2-x-x-2-x-2-x-x-|-2-x-x-2-x-x-2-x-|
E |-5-x-x-5-x-5-x-x-|-5-x-x-5-4-5-4-5-|-2-x-x-2-x-2-x-x-|-2-x-x-2-x-x-2-x-|
A |-5-x-x-5-x-5-x-x-|-5-x-x-5-4-5-4-5-|-2-x-x-2-x-2-x-x-|-2-x-x-2-x-x-2-x-|

B |-----------------|-----------------|-----------------|-------------------|
F#|-----------------|-----------------|-----------------|-------------------|
D |-----------------|-----------------|-----------------|-------------------|
A |-7-x-x-7-x-7-x-x-|-7-x-x-7-x-x-7-x-|-0-x-x-0-x-0-x-x-|-0-x-x-0----0----0-|
E |-7-x-x-7-x-7-x-x-|-7-x-x-7-x-x-7-x-|-0-x-x-0-x-0-x-x-|-0-x-x-0----0----0-|
A |-7-x-x-7-x-7-x-x-|-7-x-x-7-x-x-7-x-|-0-x-x-0-x-0-x-x-|-0-x-x-0-5+-0-7+-0-|

[Chorus]
(Guitar 1)
B |-------------------|--------------------|-------------------|--------------------|
F#|-10-10-10-8-8-8-8--|-10-10-10-8-8-12-12-|-10-10-10-8-8-8-8--|-10-10-10-8-8-12-12-|
D |-------------------|--------------------|-------------------|--------------------|
A |-7--7--7--5-5-5-5--|-7--7--7--5-5-9--9--|-7--7--7--5-5-5-5--|-7--7--7--5-5-9--9--|
E |-------------------|--------------------|-------------------|--------------------|
A |-------------------|--------------------|-------------------|--------------------|

B |-10-10-10-8-8-8-8--|-10-10-10-8-8-10-10-|-7-7-7-5-5-5-5--|-7-7-7-5-5-7-7-|
F#|-------------------|--------------------|----------------|---------------|
D |-7--7--7--5-5-5-5--|-7--7--7--5-5-7--7--|-4-4-4-2-2-2-2--|-4-4-4-2-2-4-4-|
A |-------------------|--------------------|----------------|---------------|
E |-------------------|--------------------|----------------|---------------|
A |-------------------|--------------------|----------------|---------------|

(Guitar 2)
B |-----------------|-----------------|-----------------|-----------------|
F#|-----------------|-----------------|-----------------|-----------------|
D |-----------------|-----------------|-----------------|-----------------|
A |-5-5-5-5-5-5-5-5-|-5-5-5-5-5-5-4-3-|-2-2-2-2-2-2-2-2-|-2-2-2-2-2-2-2-2-|
E |-5-5-5-5-5-5-5-5-|-5-5-5-5-5-5-4-3-|-2-2-2-2-2-2-2-2-|-2-2-2-2-2-2-2-2-|
A |-5-5-5-5-5-5-5-5-|-5-5-5-5-5-5-4-3-|-2-2-2-2-2-2-2-2-|-2-2-2-2-2-2-2-2-|

B |-----------------|-----------------|-----------------|-----------------|
F#|-----------------|-----------------|-----------------|-----------------|
D |-----------------|-----------------|-----------------|-----------------|
A |-7-7-7-7-7-7-7-7-|-7-7-7-7-7-7-7-7-|-0-0-0-0-0-0-0-0-|-0-0-0-0-0-0-0-0-|
E |-7-7-7-7-7-7-7-7-|-7-7-7-7-7-7-7-7-|-0-0-0-0-0-0-0-0-|-0-0-0-0-0-0-0-0-|
A |-7-7-7-7-7-7-7-7-|-7-7-7-7-7-7-7-7-|-0-0-0-0-0-0-0-0-|-0-0-0-0-0-0-0-0-|

[Outro]
B |---------------|-------------|
F#|---------------|-------------|
D |-----------3-3-|-------------|
A |-5-5--2-2--3-3-|--3-3--------|
E |-5-5--2-2--1-1-|--3-3--------|
A |-5-5--2-2------|--3-3--0-2---|


************************************

| x  Dead note

************************************

            
            
Suggest correction
Creating personal tab
Creating personal tab
You can edit any tab online and save it as your Personal.

You can edit, replace or remove any tab part or add personal notes – all changes will be seen only by you.

Personal tabs can be accessed anytime from any device, even offline.
Learn more »
Give kudos to tab author, rate the tab!
1 2 3 4 5
comments
print report bad tab
guest
You may want to rate the tab now too:
select rating
Wanna post a correction for this tab? Suggest correction