Oops, an error
Loading. Please wait.

Gabe Michaux - Im Wise Enough tab

34 views 1 this week
no commentswrite comment
1 2 3 4 5
3 more votes to show rating
add to favorites
×
Save as Personal and add changes to this tab that will be seen only by you. Learn more ›
×
You can save this tab as Personal to edit and correct it or add notes. All changes will be seen only by you. Learn more »
launch autoscroll
font size
0
reset
how to read this tab
guitar tuner
edit
Autoscroll
slow
fast
+/-
esc
set tempo
stop
all strings are 20 cents sharp on recording. tune to D tuning and listen to the song to tune the strings
exact. all notes are hammered on and all notes that are in front of 0 (open string) are pull offs
(/) slide up (\)slide down. video and song in comments


   [verse 1] guitar 1
D|---------------------------------------------------------------------------------------------------------|
A|---------------------------------------------------------------------------------------------------------|
F|-----------------11-0---------------------------------------11-0----------12-0-----------14-0------------|
C|---12-0---------------2-12-0---12-0----------12/14-2-------------2-12-0--------2-12-0---------4-16-0-----|
G|--------2-14-0-3--------------------2-14-0-3---------12-0-3-------------3--------------5-----------------|
D|-3---------------------------3---------------------------------------------------------------------------|


D|---------------------------------------------------------------------------------------------------------|
A|---------------------------------------------------------------------------------------------------------|
F|-----------------11-0---------------------------------------11-0----------12-0-----------14-0------------|
C|---12-0---------------2-12-0---12-0----------12/14-2-------------2-12-0--------2-12-0---------4-16-0-----|
G|--------2-14-0-3--------------------2-14-0-3---------12-0-3-------------3--------------5-----------------|
D|-3---------------------------3---------------------------------------------------------------------------|


D|---------------------------------------------------------------------------------------------------------|
A|---------------------------------------------------------------------------------------------------------|
F|-----------------11-0---------------------------------------11-0----------12-0-----------14-0------------|
C|---12-0---------------2-12-0---12-0----------12/14-2-------------2-12-0--------2-12-0---------4-16-0-----|
G|--------2-14-0-3--------------------2-14-0-3---------12-0-3-------------3--------------5-----------------|
D|-3---------------------------3---------------------------------------------------------------------------|



[chorus] guitar 1

D|---------------------------------------------------------------------------|
A|---------------------------------------------------------------------------|
F|---16-0----------14-0----------16-0----------14-0--------------------------|
C|--------5-14-0--------7-16-0--------5-14-0--------7-16-0-------------------|
G|-7-------------5-------------7-------------5-------------------------------|
D|---------------------------------------------------------------------------|

D|------------------------------------------------------14-0-----------------|
A|---15-0----------10/12----------15-0----------10/12------------------------|
F|----------12-0-------------------------12-0--------------------------------|
C|--------2--------------2-14-0--------2--------------2----------------------|
G|-3-------------3--------------3-------------3------------------------------|
D|---------------------------------------------------------------------------|

D|---------------------------------------------------------------------------|
A|---------------------------------------------------------------------------|
F|---16-0----------14-0----------16-0----------14-0--------------------------|
C|--------5-14-0--------7-16-0--------5-14-0--------7-16-0-------------------|
G|-7-------------5-------------7-------------5-------------------------------|
D|---------------------------------------------------------------------------|

D|------------------------------------------------------14-0-----------------|
A|---15-0----------10/12----------15-0----------10/12------------------------|
F|----------12-0-------------------------12-0--------------------------------|
C|--------2--------------2-14-0--------2--------------2----------------------|
G|-3-------------3--------------3-------------3------------------------------|
D|---------------------------------------------------------------------------|


   [verse 2]
D|---------------------------------------------------------------------------------------------------------|
A|---------------------------------------------------------------------------------------------------------|
F|-----------------11-0---------------------------------------11-0----------12-0-----------14-0------------|
C|---12-0---------------2-12-0---12-0----------12/14-2-------------2-12-0--------2-12-0---------4-16-0-----|
G|--------2-14-0-3--------------------2-14-0-3---------12-0-3-------------3--------------5-----------------|
D|-3---------------------------3---------------------------------------------------------------------------|


D|---------------------------------------------------------------------------------------------------------|
A|---------------------------------------------------------------------------------------------------------|
F|-----------------11-0---------------------------------------11-0----------12-0-----------14-0------------|
C|---12-0---------------2-12-0---12-0----------12/14-2-------------2-12-0--------2-12-0---------4-16-0-----|
G|--------2-14-0-3--------------------2-14-0-3---------12-0-3-------------3--------------5-----------------|
D|-3---------------------------3---------------------------------------------------------------------------|


[Chorus 2]

D|---------------------------------------------------------------------------|
A|---------------------------------------------------------------------------|
F|---16-0----------14-0----------16-0----------14-0--------------------------|
C|--------5-14-0--------7-16-0--------5-14-0--------7-16-0-------------------|
G|-7-------------5-------------7-------------5-------------------------------|
D|---------------------------------------------------------------------------|

D|------------------------------------------------------14-0-----------------|
A|---15-0----------10/12----------15-0----------10/12------------------------|
F|----------12-0-------------------------12-0--------------------------------|
C|--------2--------------2-14-0--------2--------------2----------------------|
G|-3-------------3--------------3-------------3------------------------------|
D|---------------------------------------------------------------------------|

D|---------------------------------------------------------------------------|
A|---------------------------------------------------------------------------|
F|---16-0----------14-0----------16-0----------14-0--------------------------|
C|--------5-14-0--------7-16-0--------5-14-0--------7-16-0-------------------|
G|-7-------------5-------------7-------------5-------------------------------|
D|---------------------------------------------------------------------------|

D|------------------------------------------------------14-0-----------------|
A|---15-0----------10/12----------15-0----------10/12------------------------|
F|----------12-0-------------------------12-0--------------------------------|
C|--------2--------------2-14-0--------2--------------2----------------------|
G|-3-------------3--------------3-------------3------------------------------|
D|---------------------------------------------------------------------------|


[bridge]

D|-----------------------------------------------------10-0-------------------|
A|---15-0----------12-0-----------10-0----------------------------------------|
F|----------16-0----------12-0-----------11-0---12-0--------------------------|     
c|--------5-------------4--------------2--------------------------------------|
G|-7-------------5-------------3---------------------2------------------------|
D|--------------------------------------------3-------------------------------|

D|-----------------------------------------------------10-0-------------------|
A|---15-0----------12-0-----------10-0----------------------------------------|
F|----------16-0----------12-0-----------11-0---12-0--------------------------|     
c|--------5-------------4--------------2--------------------------------------|
G|-7-------------5-------------3---------------------2------------------------|
D|--------------------------------------------3-------------------------------|

D|-----------------------------------------------------10-0-------------------|
A|---15-0----------12-0-----------10-0----------------------------------------|
F|----------16-0----------12-0-----------11-0---12-0--------------------------|     
c|--------5-------------4--------------2--------------------------------------|
G|-7-------------5-------------3---------------------2------------------------|
D|--------------------------------------------3-------------------------------|

D|-----------------------------------------------------10-0-------------------|
A|---15-0----------12-0-----------10-0----------------------------------------|
F|----------16-0----------12-0-----------11-0---12-0--------------------------|     
c|--------5-------------4--------------2--------------------------------------|
G|-7-------------5-------------3---------------------2------------------------|
D|--------------------------------------------3-------------------------------|


[outro]

D|---------------------------------------------------------------------------|
A|---------------------------------------------------------------------------|
F|---16-0----------14-0----------16-0----------14-0--------------------------|
C|--------5-14-0--------7-16-0--------5-14-0--------7-16-0-------------------|
G|-7-------------5-------------7-------------5-------------------------------|
D|---------------------------------------------------------------------------|

D|------------------------------------------------------14-0-----------------|
A|---15-0----------10/12----------15-0----------10/12------------------------|
F|----------12-0-------------------------12-0--------------------------------|
C|--------2--------------2-14-0--------2--------------2----------------------|
G|-3-------------3--------------3-------------3------------------------------|
D|---------------------------------------------------------------------------|

D|---------------------------------------------------------------------------|
A|---------------------------------------------------------------------------|
F|---16-0----------14-0----------16-0----------14-0--------------------------|
C|--------5-14-0--------7-16-0--------5-14-0--------7-16-0-------------------|
G|-7-------------5-------------7-------------5-------------------------------|
D|---------------------------------------------------------------------------|

D|------------------------------------------------------14-0-----------------|
A|---15-0----------10/12----------15-0----------10/12------------------------|
F|----------12-0-------------------------12-0--------------------------------|
C|--------2--------------2-14-0--------2--------------2----------------------|
G|-3-------------3--------------3-------------3----------------2-------------|
D|-------------------------------------------------------------3-------------|


************************************

| /  Slide up

************************************

            
            
Suggest correction
Creating personal tab
Creating personal tab
You can edit any tab online and save it as your Personal.

You can edit, replace or remove any tab part or add personal notes – all changes will be seen only by you.

Personal tabs can be accessed anytime from any device, even offline.
Learn more »
Give kudos to tab author, rate the tab!
1 2 3 4 5
comments
print report bad tab
guest
You may want to rate the tab now too:
select rating
Wanna post a correction for this tab? Suggest correction