Oops, an error
Loading. Please wait.

Generation Nomad - Aftertaste bass

10 views 1 this week
no commentswrite comment
1 2 3 4 5
3 more votes to show rating
add to favorites
×
Save as Personal and add changes to this tab that will be seen only by you. Learn more ›
×
You can save this tab as Personal to edit and correct it or add notes. All changes will be seen only by you. Learn more »
launch autoscroll
font size
0
reset
guitar tuner
edit
Autoscroll
slow
fast
+/-
esc
set tempo
stop
Author
Difficulty
[Verse 1] (x2)

G|--------------------------|--------------------------|
D|--------------------------|--------------------------|
A|--------------------------|--------------------------|
E|--3--3--3--3--3--3--3--2--|--0--0--0--0--0--0--0--3--|

G|--------------------------|--------------------------|
D|--------------------------|--------------------------|
A|--5--5--5--5--5--5--5--2--|--3--3--3--3--3--3--2--0--|
E|--------------------------|--------------------------|

[Chorus] *The (3) is because the 5 slides down to the 3 into the next measure*

G|-----------------------|-----------------|----0---0-----------|------------------------------|
D|-----------------------|-----------------|--------------------|------------------------------|
A|-----------------------|----2--2-----2-0-|-3-----3--3--3--3-2-|----5---5---------------------|
E|-3---3---3-3---3---3-2-|-0----0--0-0-----|--------------------|-5-----5---5---5--5-5-5-5\(3)-| x2  

[Post-Chorus]

G|---------------------------------|---------------------------------|
D|---------------------------------|---------------------------------|
A|---------------------------------|-------------------------------2-|
E|-3-3-3-3-3-3-3-3-3-3-3-3-3-3-3-2-|-0-0-0-0-0-0-0-0-0-0-0-0-0-0-0---|

G|---------------------------------|-----------------------------|
D|---------------------------------|-----------------------------|
A|-3-3-3-3-3-3-3-3-3-3-3-3-3-3-3-2-|-0-0-0-0-0-0-0-0-0-0-0-0-0-0-|
E|---------------------------------|-----------------------------|
[Verse 2]

G|---------------------------------|-------------------------------|
D|---------------------------------|-------------------------------|
A|---------------------------------|-------------------------------|
E|-3-3-3-3-3-3-3-3-3-3-3-3-3-3-3-2-|-0-0-0-0-0-0-0-0-0-0-0-0-0-0-3-|

G|---------------------------------|---------------------------------|
D|---------------------------------|---------------------------------|
A|-5-5-5-5-5-5-5-5-5-5-5-5-5-5-5-2-|-3-3-3-3-3-3-3-3-3-3-3-3-3-3-3-2-|
E|---------------------------------|---------------------------------|


[Chorus 2] *The only thing that changes is that there should be no slide down to 3 into the bridge*

G|-----------------------|-----------------|----0---0-----------|------------------------------|
D|-----------------------|-----------------|--------------------|------------------------------|
A|-----------------------|----2--2-----2-0-|-3-----3--3--3--3-2-|----5---5---------------------|
E|-3---3---3-3---3---3-2-|-0----0--0-0-----|--------------------|-5-----5---5---5--5-5-5-5\(3)-| x2 

[Bridge]

G|-------------|-------------|
D|-------------|-------------|
A|-3-----7-----|-5-----------|
E|-------------|-------------| x4   


G|-----------------|----------------|
D|-----------------|----------------|
A|-3-3-3-3-7-7-7-7-|5-5-5-5-5-5-5-5-|
E|-----------------|----------------| x4 *Bend the 5s on the last time through*

[Chorus 3] *The only thing that changes from Chorus 2 is the pause at the beginning of both times and there 
are no slide downs to 3 except the last time(into the post-chorus)*

G|-----------------------|-----------------|----0---0-----------|----------------------------|
D|-----------------------|-----------------|--------------------|----------------------------|
A|-----------------------|----2--2-----2-0-|-3-----3--3--3--3-2-|----5---5-------------------|
E|-----3---3-3---3---3-2-|-0----0--0-0-----|--------------------|-5-----5---5---5--5-5-5-x---| x2  

G|----0---0-----------|------------------------------|
D|--------------------|------------------------------|
A|-3-----3--3--3--3-2-|----5---5---------------------|
E|--------------------|-5-----5---5---5--5-5-5-5\(3)-|

[Post-Chorus]

G|---------------------------------|---------------------------------|
D|---------------------------------|---------------------------------|
A|---------------------------------|---------------------------------|
E|-3-3-3-3-3-3-3-3-3-3-3-3-3-3-3-2-|-0-0-0-0-0-0-0-0-0-0-0-0-0-0-0-2-|

G|---------------------------------|-----------------------------|
D|---------------------------------|-----------------------------|
A|-3-3-3-3-3-3-3-3-3-3-3-3-3-3-3-2-|-0-0-0-0-0-0-0-0-0-0-0-0-0-0-|
E|---------------------------------|-----------------------------|

G|---------------------------------|---------------------------------|
D|---------------------------------|---------------------------------|
A|---------------------------------|---------------------------------|
E|-3-3-3-3-3-3-3-3-3-3-3-3-3-3-3-2-|-0-0-0-0-0-0-0-0-0-0-0-0-0-0-0-2-|

G|---------------------------------|----------------------------|
D|---------------------------------|----------------------------|
A|-3-3-3-3-3-3-3-3-3-3-3-3-3-3-3-2-|-0--------------------------|
E|---------------------------------|----------------------------|

************************************

| \   Slide down
| x   Mute

************************************

            
            
Suggest correction
Creating personal tab
Creating personal tab
You can edit any tab online and save it as your Personal.

You can edit, replace or remove any tab part or add personal notes – all changes will be seen only by you.

Personal tabs can be accessed anytime from any device, even offline.
Learn more »
Give kudos to tab author, rate the tab!
1 2 3 4 5
comments
print report bad tab
guest
You may want to rate the tab now too:
select rating
Wanna post a correction for this tab? Suggest correction