Oops, an error
Loading. Please wait.

Geomotions - Na tab

60 views 1 this week
no commentswrite comment
1 2 3 4 5
3 more votes to show rating
add to favorites
×
Save as Personal and add changes to this tab that will be seen only by you. Learn more ›
×
You can save this tab as Personal to edit and correct it or add notes. All changes will be seen only by you. Learn more »
launch autoscroll
font size
0
reset
how to read this tab
guitar tuner
edit
Autoscroll
slow
fast
+/-
esc
set tempo
stop
Author
Difficulty
hey guys and girls. this is my first tab. its what i have for my first song
that i'm writing. this is just an intro basically. so yea it doesn't really
have a name yet but it is by Brendan Smith - Me!!!
so enjoy. Oh and when you play, say the words (you can sing if you want) then play it.
and after awhile the lyrics will stop. thats 'cause im not done the song yet.
but the beat is the same as the beginning. 

----------------------------------------------------------------------------
Tabbed by: Geomotions
Email: brendan02134@hotmail.com

Tuning: standard

  Thank god It's Friday night
e|------------------------|
B|------------------------|
G|------------------------|
D|-----33---55------------|
A|-----11---33---55-------|
E|---------------33-------|

  I'm hangin' with my friends
e|------------------------|
B|------------------------|
G|------------------------|
D|-----33---55------------|
A|-----11---33---55-------|
E|---------------33-------|

  A party at my house
e|------------------------|
B|------------------------|
G|------------------------|
D|-----33---55------------|
A|-----11---33---55-------|
E|---------------33-------|

  The fun will never end
e|------------------------|
B|------------------------|
G|------------------------|
D|-----33---55--------9---|
A|-----11---33---55---7---|
E|---------------33-------|

        (play this part twice)
e|-----------------------------------------------------------|
B|-----------------------------------------------------------|
G|-----------------------------------------------------------|
D|-----3-5--------------------------3-5----------777---------|
A|-----1-3----5555-5/7-7------------1-3----5555--555---------|
E|------------3333-3/5-5-------------------3333--------------|

   you can repeat the first words for the beat
e|---------------------|
B|---------------------|
G|---------------------|
D|-------------77------|
A|---77---55---55------|
E|---55---33-----------|

that right there ^ you would just play for times the the part before that,
then i would put in a solo the rap it up with some cool ending, but i 
digress. anyway, if you can come up with some words or even a solo for my
song, contact me and i'll try it out.

| /  slide up
| \  slide down
| h  hammer-on
| p  pull-off
| ~  vibrato
| +  harmonic
| x  Mute note
===========================================================================

            
            
Suggest correction
Creating personal tab
Creating personal tab
You can edit any tab online and save it as your Personal.

You can edit, replace or remove any tab part or add personal notes – all changes will be seen only by you.

Personal tabs can be accessed anytime from any device, even offline.
Learn more »
Give kudos to tab author, rate the tab!
1 2 3 4 5
comments
print report bad tab
guest
You may want to rate the tab now too:
select rating
Wanna post a correction for this tab? Suggest correction