Oops, an error
Loading. Please wait.

Gogo7188 - Kanojo To Watashi bass

603 views 1 this week
no commentswrite comment
1 2 3 4 5
3 more votes to show rating
add to favorites
×
Save as Personal and add changes to this tab that will be seen only by you. Learn more ›
×
You can save this tab as Personal to edit and correct it or add notes. All changes will be seen only by you. Learn more »
launch autoscroll
font size
0
reset
guitar tuner
edit
Autoscroll
slow
fast
+/-
esc
set tempo
stop
Author
Difficulty
Artist: Go!Go!7188
Song: Kanojo to Watashi
Album: Dasoku Hokou
Tuning: Standard (EADG)
Tabbed by: Skayle
This is my first Tab so I would be happy if you comment&rate!
Go!Go!7188 is a really great band, making very good music and I just love this song.
Hopefully I will be able to tab more than this in the future.


Guitar Intro: 4 Bars


Intro (0:07):

G|--------|--------|            G|--------|--------|
D|--------|--------|            D|--------|--------|
A|3-31--12|3-31--12| Repeat x3  A|3-31--12|----22--|
E|----33--|----3---|            E|----33--|3311--33|


Verse (0:22):

"Yobitomeru koe furikitte..."

G|--------|--------|            G|--------|--------|
D|--------|--------|            D|--------|--------|
A|3-31--12|3-31--12| Repeat x3  A|3-31--12|--------|
E|----33--|----3---|            E|----33--|11123333|


Verse2 (0:35):

"Ima sugu manneri (=mannerism) kara..."

G|--00----|--00----|--------|--------|--------|--------|--------|--------|
D|----3311|----3311|--------|--------|--------|--------|--------|--331100|
A|33------|33------|--665533|--665533|--553311|--553311|--665533|11------|
E|--------|--------|44------|44------|33------|33------|44------|--------|

G|--00----|--00----|--------|--------|--------|0-------|--------|--------|
D|----3311|----3311|--------|--------|1-1---13|---3--1-|--------|--331100|
A|33------|33------|--665533|--665533|-----3--|--------|--665533|11------|
E|--------|--------|44------|44------|--------|--------|44------|--------|


Refrain (1:04):

"Atashi no koto ga minukenai nante..."

G|--0-----|--------|--------|--00----|--0-----|--------|--------|--------|
D|---1----|-10-----|--------|----3311|---1----|-10-----|--------|--------|
A|3-----13|---23---|------2-|33------|3-----13|---23---|------2-|--3333--|
E|----44--|3-------|111233-3|--------|----44--|3-------|111233-3|--------|


Bridge (1:18):

G|--------|--------|--------|--------|
D|--------|--------|--------|--------|
A|--------|--------|--------|--------|
E|3-------|3-------|3---3---|--------|


Verse (1:25):

"Kanojo no kyouri to watashi no kyouri..."

G|--------|--------|            G|--------|--------|
D|--------|--------|            D|--------|--------|
A|3-31--12|3-31--12| Repeat x3  A|3-31--12|--------|
E|----33--|----3---|            E|----33--|11123333|


Verse2 (1:39):

"Akireru kurai hara ga tatsu no yo..."

G|--00----|--00----|--------|--------|--------|--------|--------|--------|
D|----3311|----3311|--------|--------|--------|--------|--------|--331100|
A|33------|33------|--665533|--665533|--553311|--553311|--665533|11------|
E|--------|--------|44------|44------|33------|33------|44------|--------|

G|--00----|--00----|--------|--------|--------|0-------|--------|--------|
D|----3311|----3311|--------|--------|1-1---13|---3--1-|--------|--331100|
A|33------|33------|--665533|--665533|-----3--|--------|--665533|11------|
E|--------|--------|44------|44------|--------|--------|44------|--------|


Refrain (2:08):

"Atashi no kotoba minukenai nante..."

G|--0-----|--------|--------|--00----|--0-----|--------|--------|--------|
D|---1----|-10-----|--------|----3311|---1----|-10-----|--------|--------|
A|3-----13|---23---|------2-|33------|3-----13|---23---|------2-|--3333--|
E|----44--|3-------|111233-3|--------|----44--|3-------|111233-3|--------|


Verse (2:22):

G|--------|--------|            G|--------|--------|
D|--------|--------|            D|--------|--------|
A|3-31--12|3-31--12| Repeat x3  A|3-31--12|--------|
E|----33--|----3---|            E|----33--|11123333|


Bridge2 (2:36):

G|--00----|--00----|--------|--------|--------|--------|--------|--------|--------|
D|----3311|----3311|--------|--------|--331100|--331100|1--1----|--------|--------|
A|33------|33------|--665533|--665533|11------|11------|--------|--------|--------|
E|--------|--------|44------|44------|--------|--------|--------|3-------|3-------|

G|--------|--------|--------|--------|--------|
D|--------|--------|--------|00000000|0-------|
A|--------|----0000|11113333|--------|--------|
E|----13/3|3333----|--------|--------|--------|


Refrain (3:06):

"Atashi no koto ga minukenai nante..."

G|--0-----|--------|--------|--00----|--0-----|--------|--------|--------|
D|---1----|-10-----|--------|----3311|---1----|-10-----|--------|--------|
A|3-----13|---23---|------2-|33------|3-----13|---23---|------2-|--3333--|
E|----44--|3-------|111233-3|--------|----44--|3-------|111233-3|--------|

G|--0-----|--------|--------|--00----|--0-----|--------|--------|
D|---1----|-10-----|--------|----3311|---1----|-10-----|--------|
A|3-----13|---23---|------2-|33------|3-----13|---23---|------2-|
E|----44--|3-------|111233-3|--------|----44--|3-------|111233-3|


Outro (3:32):

"-yo~ Tada~..."

G|--------|--------|--------|--------|--------|--------|--------|--------|
D|0-------|--------|0-------|--------|0-------|--------|0-------|--------|
A|--------|1-------|--------|1-------|--------|1-------|--------|13/0----|
E|--------|--------|--------|--------|--------|--------|--------|--------|

G|--------|--------|--------|--------|--------|
D|0-------|--------|--------|0-------|0-------|
A|--------|--------|0-------|--------|--------|
E|--------|3-------|--------|--------|--------|


For the Outro just listen to the song and you should be able to play it with the right pauses.

| /  slide up
| \  slide down
| h  hammer-on
| p  pull-off
| ~  vibrato
| +  harmonic
| x  Mute note


Play Order:
Intro
Verse
Verse2
Refrain
Bridge
Verse
Verse2
Refrain
Verse
Bridge2
Refrain
Outro


If I made any mistakes or you think I haven't tabbed a certain part correctly feel free 
email me at jinu@live.jp!

            
            
Suggest correction
Creating personal tab
Creating personal tab
You can edit any tab online and save it as your Personal.

You can edit, replace or remove any tab part or add personal notes – all changes will be seen only by you.

Personal tabs can be accessed anytime from any device, even offline.
Learn more »
Give kudos to tab author, rate the tab!
1 2 3 4 5
comments
print report bad tab
guest
You may want to rate the tab now too:
select rating
Wanna post a correction for this tab? Suggest correction