Oops, an error
Loading. Please wait.

Gravis - Instrumetal tab

150 views 1 this week
no commentswrite comment
1 2 3 4 5
3 more votes to show rating
add to favorites
×
Save as Personal and add changes to this tab that will be seen only by you. Learn more ›
×
You can save this tab as Personal to edit and correct it or add notes. All changes will be seen only by you. Learn more »
launch autoscroll
font size
0
reset
how to read this tab
guitar tuner
edit
Autoscroll
slow
fast
+/-
esc
set tempo
stop
Author
Gravis - Instrumetal
Rhythm Guitar

Intro Part 1 (Guitar 2)
Eb|---------------------------------|---------------------------------|
Bb|---------------------------------|---------------------------------|
Gb|-7-----5-4-----5-9-----5-3-----5-|-7-----5-4-----9-5-----7-4-----5-|
Db|---------------------------------|---------------------------------|
Ab|-5-----3-2-----3-7-----3-2-----3-|-5-----3-2-----7-3-----5-2-----3-|
Eb|---------------------------------|---------------------------------|

Eb|---------------------------------|---------------------------------|
Bb|---------------------------------|---------------------------------|
Gb|-5-----7-7-----2-2-----4-4-----9-|-9-----5-5-----7-7-----4-4-----5-|
Db|---------------------------------|---------------------------------|
Ab|-3-----5-5-----0-0-----2-2-----7-|-7-----3-3-----5-5-----2-2-----3-|
Eb|---------------------------------|---------------------------------|

Eb|---------------------------------|---------------------------------|
Bb|---------------------------------|---------------------------------|
Gb|-5-----7-7-----2-2-----4-4-----9-|-9-----5-5-----7-7-----4-4-------|
Db|---------------------------------|---------------------------------|
Ab|-3-----5-5-----0-0-----2-2-----7-|-7-----3-3-----5-5-----2-2-------|
Eb|---------------------------------|---------------------------------|

Intro Part 2 (Guitar 1)
Eb|---------------------------------|
Bb|---------------------------------|
Gb|-------------------------------7-|
Db|-------------------------7-9-10--|
Ab|---------------------------------|
Eb|---------------------------------|

Eb|---------------------------------|---------------------------------|
Bb|---------------------------------|---------------------------------|
Gb|-9~---------------------10-9-7---|-------------------------------7-|
Db|------------------------------10-|-9~----------------------7-9-10--|
Ab|---------------------------------|---------------------------------|
Eb|---------------------------------|---------------------------------|

Eb|---------------------------------|---------------------------------|
Bb|---------------------------------|---------------------------------|
Gb|-9-7-9~-----------------10-9-7---|---------------------------------|
Db|------------------------------10-|-9~----------------7~------5~----|
Ab|---------------------------------|---------------------------------|
Eb|---------------------------------|---------------------------------|

Eb|------------------------------10-|-12~------------------13-12-10---|
Bb|-/10~-----------------10-12-13---|------------------------------13-|
Gb|---------------------------------|---------------------------------|
Db|---------------------------------|---------------------------------|
Ab|---------------------------------|---------------------------------|
Eb|---------------------------------|---------------------------------|

Eb|---------------------------------|---------------------------------|
Bb|-12~------------------13-12-10---|-10~-----------------------------|
Gb|------------------------------12-|-------------------12~-----10~---|
Db|---------------------------------|---------------------------------|
Ab|---------------------------------|---------------------------------|
Eb|---------------------------------|---------------------------------|

Eb|---------------------------------|---------------------------------|
Bb|-10~-----------------------------|-(10)----------------------------|
Gb|---------------------------------|---------------------------------|
Db|---------------------------------|---------------------------------|
Ab|---------------------------------|---------------------------------|
Eb|---------------------------------|---------------------------------|

Verse 1 (Both Guitars)
Eb|---------------------------------|---------------------------------|
Bb|---------------------------------|---------------------------------|
Gb|-2---x-x-2---x-2---x-2---2-x-2---|-4---x-x-4---x-4---x-4---4-x-4---|
Db|-2---x-x-2---x-2---x-2---2-x-2---|-4---x-x-4---x-4---x-4---4-x-4---|
Ab|-0---x-x-0---x-0---x-0---0-x-0---|-2---x-x-2---x-2---x-2---2-x-2---|
Eb|---------------------------------|---------------------------------|
                                                                       >rpt
Eb|---------------------------------|---------------------------------|  x2
Bb|---------------------------------|---------------------------------|
Gb|-5---x-x-5---x-5---x-5---5-x-5---|-7---x-x-7---x-7---x-7---7-x-7---|
Db|-5---x-x-5---x-5---x-5---5-x-5---|-7---x-x-7---x-7---x-7---7-x-7---|
Ab|-3---x-x-3---x-3---x-3---3-x-3---|-5---x-x-5---x-5---x-5---5-x-5---|
Eb|---------------------------------|---------------------------------|
(Guitar 1)
Eb|---------------------------------|---------------------------------|
Bb|---------------------------------|---------------------------------|
Gb|---------------------------------|---------------------------------|
Db|-7-------7-----7-----7---7---7h9-|-9-------9-----9-----9---9---9h10|
Ab|---------------------------------|---------------------------------|
Eb|---------------------------------|---------------------------------|
(Guitar 2)
Eb|---------------------------------|---------------------------------|
Bb|---------------------------------|---------------------------------|
Gb|-2---x-x-2---x-2---x-2---2-x-2---|-4---x-x-4---x-4---x-4---4-x-4---|
Db|-2---x-x-2---x-2---x-2---2-x-2---|-4---x-x-4---x-4---x-4---4-x-4---|
Ab|-0---x-x-0---x-0---x-0---0-x-0---|-2---x-x-2---x-2---x-2---2-x-2---|
Eb|---------------------------------|---------------------------------|

(Guitar 1)
Eb|---------------------------------|---------------------------------|
Bb|---------------------------------|-/15-----------------------------|
Gb|---------------------------------|---------------------------------|
Db|-10------10----10----10--10--10--|---------------------------------|
Ab|---------------------------------|---------------------------------|
Eb|---------------------------------|---------------------------------|
(Guitar 2)
Eb|---------------------------------|---------------------------------|
Bb|---------------------------------|---------------------------------|
Gb|-5---x-x-5---x-5---x-5---5-x-5---|-7---x-x-7---x-7---x-7---7-x-7---|
Db|-5---x-x-5---x-5---x-5---5-x-5---|-7---x-x-7---x-7---x-7---7-x-7---|
Ab|-3---x-x-3---x-3---x-3---3-x-3---|-5---x-x-5---x-5---x-5---5-x-5---|
Eb|---------------------------------|---------------------------------|
(Guitar 1)                           (Guitar 2)
Eb|---------------------------------|---------------------------------|
Bb|-(15)\---------------------------|---------------------------------|
Gb|---------------------------------|-7~------------------------------|
Db|---------------------------------|-7~------------------------------|
Ab|---------------------------------|-5~------------------------------|
Eb|---------------------------------|---------------------------------|

Chorus (Both Guitars)
Eb|---------------------------------|---------------------------------|
Bb|---------------------------------|---------------------------------|
Gb|-7-7-7-7---x-7---5---x-5---x-5---|-3---x-3---x-3---5---x-5---x-5---|rpt
Db|-7-7-7-7---x-7---5---x-5---x-5---|-3---x-3---x-3---5---x-5---x-5---|x2
Ab|-5-5-5-5---x-5---3---x-3---x-3---|-1---x-1---x-1---3---x-3---x-3---|
Eb|---------------------------------|---------------------------------|
   PM....
(Guitar 1)
Eb|---------------------------------|---------------------------------|
Bb|---------------------------------|---------------------------------|
Gb|-7-------7-------9-------9-------|-10------10------5-------7-------|
Db|---------------------------------|---------------------------------|
Ab|---------------------------------|---------------------------------|
Eb|---------------------------------|---------------------------------|

Eb|---------------------------------|---------------------------------|
Bb|---------------------------------|---------------------------------|
Gb|-7-------7-------9-------9-------|-10------10------12------14------|
Db|---------------------------------|---------------------------------|
Ab|---------------------------------|---------------------------------|
Eb|---------------------------------|---------------------------------|
(Guitar 2)
Eb|---------------------------------|---------------------------------|
Bb|---------------------------------|---------------------------------|
Gb|-7-7-7-7---x-7---5---x-5---x-5---|-3---x-3---x-3---5---x-5---x-5---|rpt
Db|-7-7-7-7---x-7---5---x-5---x-5---|-3---x-3---x-3---5---x-5---x-5---|x2
Ab|-5-5-5-5---x-5---3---x-3---x-3---|-1---x-1---x-1---3---x-3---x-3---|
Eb|---------------------------------|---------------------------------|
   PM....
(Guitar 1)
Eb|-------------------------------------------------|-------------------------------------------------|
Bb|-------------------------------------------------|-------------------------------------------------|
Gb|-------------------------------------------------|-------------------------------------------------|
Db|-12-14-15-14-17-14-15-14-12-14-15-14-12-14-15-14-|-12-14-15-14-17-14-15-14-12-14-15-14-12-14-15-14-|
Ab|-------------------------------------------------|-------------------------------------------------|
Eb|-------------------------------------------------|-------------------------------------------------|

Eb|-------------------------------------------------|-------------------------------------------------|
Bb|-------------------------------------------------|-------------------------------------------------|
Gb|-------------------------------------------------|-------------------------------------------------|
Db|-12-14-15-14-17-14-15-14-12-14-15-14-12-14-15-14-|-12-14-15-14-17-14-15-14-12-14-15-14p10----12----|
Ab|-------------------------------------------------|-------------------------------------------------|
Eb|-------------------------------------------------|-------------------------------------------------|
(Guitar 2)
Eb|---------------------------------|---------------------------------|
Bb|---------------------------------|---------------------------------|
Gb|-7---7-7-7-7-7-7-5---5-5-5-5-5-5-|-3---3-3-3-3-3-3-5---5-5-5-5-5-5-|rpt
Db|-7---7-7-7-7-7-7-5---5-5-5-5-5-5-|-3---3-3-3-3-3-3-5---5-5-5-5-5-5-|x2
Ab|-5---5-5-5-5-5-5-3---3-3-3-3-3-3-|-1---1-1-1-1-1-1-3---3-3-3-3-3-3-|
Eb|---------------------------------|---------------------------------|
        PM.........     PM.........       PM.........     PM.........
(Guitar 1)
Eb|-------------------------------------------------|-------------------------------------------------|
Bb|-------------------------------------------------|-------------------------------------------------|
Gb|-------------------------------------------------|-------------------------------------------------|
Db|---------h12---------------------h12-------------|---------h12---------------------h12-14----14----|
Ab|-12h14h15----15----15----12h14h15----14----14----|-12h14h15----15----15----12h14h15----------------|
Eb|-------------------------------------------------|-------------------------------------------------|

Eb|-------------------------------------------------|-------------------------------------------------|
Bb|-------------------------------------------------|-------------------------------------------------|
Gb|-------------------------------------------------|-------------------------------------------------|
Db|-------------------------------------------------|-------------------------------------------------|
Ab|-12h14-12h14-15----15----15h17-15h17-14----14----|-12h14-12h14-15----14----10~---------12----------|
Eb|-------------------------------------------------|-------------------------------------------------|
(Guitar 2)
Eb|---------------------------------|---------------------------------|
Bb|---------------------------------|---------------------------------|
Gb|-2---2-2-2-2-2-2-3---3-3-3-3-3-3-|-2---2-2-2-2-2-2-5---5-5-5-5-5-5-|rpt
Db|-2---2-2-2-2-2-2-3---3-3-3-3-3-3-|-2---2-2-2-2-2-2-5---5-5-5-5-5-5-|x2
Ab|-0---0-0-0-0-0-0-1---1-1-1-1-1-1-|-0---0-0-0-0-0-0-3---3-3-3-3-3-3-|
Eb|---------------------------------|---------------------------------|
        PM.........     PM.........       PM.........     PM.........


Verse 2 (Both Guitars)
Eb|---------------------------------|---------------------------------|
Bb|---------------------------------|---------------------------------|
Gb|-2---------------7---------------|-5-------------------------------|rpt
Db|-2---------------7---------------|-5-------------------------------|x2
Ab|-0---0-0-0---0-0-5---0-0-0---0-0-|-3---0-0-0---0-0---0-0-0-0---0---|
Eb|---------------------------------|---------------------------------|
        PM.........     PM.........       PM...................
(Guitar 1)
Eb|---------------------------------|---------------------------------|
Bb|---------------------------------|---------------------------------|
Gb|-----------------7~--------------|-5~------------------------------|rpt
Db|-7~------------------------------|---------------------------------|x2
Ab|---------------------------------|---------------------------------|
Eb|---------------------------------|---------------------------------|
(Guitar 2)
Eb|---------------------------------|---------------------------------|
Bb|---------------------------------|---------------------------------|
Gb|-2~--------------7~--------------|-5~------------------------------|rpt
Db|-2~--------------7~--------------|-5~------------------------------|x2
Ab|-0~--------------5~--------------|-3~------------------------------|
Eb|---------------------------------|---------------------------------|

Pre-Solo (Both Guitars)
Eb|---------------------------------|
Bb|---------------------------------|
Gb|-9---x-7---x-9---x-10--x-9---7---|rpt
Db|-9---x-7---x-9---x-10--x-9---7---|x4
Ab|-7---x-5---x-7---x-8---x-7---5---|
Eb|---------------------------------|

Solo (Guitar 2)
Eb|---------------------------------|
Bb|---------------------------------|
Gb|-9---x-7---x-9---x-10--x-9---10--|rpt
Db|-9---x-7---x-9---x-10--x-9---10--|x4
Ab|-7---x-5---x-7---x-8---x-7---8---|
Eb|---------------------------------|

Eb|---------------------------------|
Bb|---------------------------------|
Gb|-10--x-9---x-10--x-12--x-10--12--|rpt
Db|-10--x-9---x-10--x-12--x-10--12--|x4
Ab|-8---x-7---x-8---x-10--x-8---10--|
Eb|---------------------------------|

Eb|---------------------------------|
Bb|---------------------------------|
Gb|-9---x-7---x-9---x-10--x-7---9---|rpt
Db|-9---x-7---x-9---x-10--x-7---9---|x4
Ab|-7---x-5---x-7---x-8---x-5---7---|
Eb|---------------------------------|

Eb|---------------------------------|
Bb|---------------------------------|
Gb|-10--x-9---x-10--x-12--x-9---10--|rpt
Db|-10--x-9---x-10--x-12--x-9---10--|x4
Ab|-8---x-7---x-8---x-10--x-7---8---|
Eb|---------------------------------|


Interlude x4 (Both Guitars)
Eb|---------------------------------|
Bb|---------------------------------|
Gb|-9---x-7---x-9---x-10--x-7---9---|
Db|-9---x-7---x-9---x-10--x-7---9---|
Ab|-7---x-5---x-7---x-8---x-5---7---|
Eb|---------------------------------|

Bridge (Both Guitars)
Eb|---------------------------------|---------------------------------|
Bb|---------------------------------|---------------------------------|
Gb|-10101010101010109-9-9-9-9-9-9-9-|---------------------------------|rpt
Db|-10101010101010109-9-9-9-9-9-9-9-|-10101010101010109-9-9-9-9-9-9-9-|x4
Ab|-8-8-8-8-8-8-8-8-7-7-7-7-7-7-7-7-|-10101010101010109-9-9-9-9-9-9-9-|
Eb|---------------------------------|-8-8-8-8-8-8-8-8-7-7-7-7-7-7-7-7-|
      PM.............................................................
(Guitar 1)
Eb|---------------------------------|---------------------------------|
Bb|---------------------------------|---------------------------------|
Gb|-10~-------------9~--------------|---------------------------------|
Db|---------------------------------|-10~-------------9~--------------|
Ab|---------------------------------|---------------------------------|
Eb|---------------------------------|---------------------------------|

Eb|---------------------------------|---------------------------------|
Bb|---------------------------------|----------------/12~-------------|
Gb|-10~-------------9~--------------|---------------------------------|
Db|---------------------------------|-10~-----------------------------|
Ab|---------------------------------|---------------------------------|
Eb|---------------------------------|---------------------------------|
(Guitar 2)
Eb|---------------------------------|---------------------------------|
Bb|---------------------------------|---------------------------------|
Gb|-10~-------------9~--------------|---------------------------------|rpt
Db|-10~-------------9~--------------|-10~-------------9~--------------|x2
Ab|-8~--------------7~--------------|-10~-------------9~--------------|
Eb|---------------------------------|-8~--------------7~--------------|

Pre-Chorus x2 (Both Guitars)
Eb|---------------------------------|---------------------------------|
Bb|---------------------------------|---------------------------------|
Gb|-7-7-7-7---x-7---5---x-5---x-5---|-3---x-3---x-3---5---x-5---x-5---|
Db|-5-5-5-7---x-7---5---x-5---x-5---|-3---x-3---x-3---5---x-5---x-5---|
Ab|-5-5-5-5---x-5---3---x-3---x-3---|-1---x-1---x-1---3---x-3---x-3---|
Eb|---------------------------------|---------------------------------|
   PM....

Chorus 2 (Guitar 1)
(Guitar 1)
Eb|-------------------------------------------------|-------------------------------------------------|
Bb|-------------------------------------------------|-------------------------------------------------|
Gb|-------------------------------------------------|-------------------------------------------------|
Db|-12-14-15-14-17-14-15-14-12-14-15-14-17-14-15-14-|-12-14-15-14-17-14-15-14-12-14-15-14-17-14-15-14-|
Ab|-------------------------------------------------|-------------------------------------------------|
Eb|-------------------------------------------------|-------------------------------------------------|

Eb|-------------------------------------------------|-------------------------------------------------|
Bb|-------------------------------------------------|-------------------------------------------------|
Gb|-------------------------------------------------|-------------------------------------------------|
Db|-12-14-15-14----14-15-14-12-14-15-14----14-15-14-|-12-14-15-14----14-15-14-12-14-15-14----14-15-14-|
Ab|-------------15----------------------15----------|-------------15----------------------15----------|
Eb|-------------------------------------------------|-------------------------------------------------|

Eb|-------------------------------------------------|-------------------------------------------------|
Bb|-------------------------------------------------|-------------------------------------------------|
Gb|-------------------------------------------------|-------------------------------------------------|
Db|-12-14-15-14-17-14-15-14-12-14-15-14----14-15-14-|-12-14-15-14-17-14-15-14-12-14-15-14----14-15-14-|
Ab|-------------------------------------15----------|-------------------------------------15----------|
Eb|-------------------------------------------------|-------------------------------------------------|

Eb|-------------------------------------------------|-------------------------------------------------|
Bb|-------------------------------------------------|-------------------------------------------------|
Gb|-------------------------------------------------|-------------------------------------------------|
Db|-12-12-15-14-------15-14-12-12-15-14-------15-14-|-12-14-15-14-17-14-15-14-17---17-17---17~---(17)\|
Ab|-------------15-15-------------------15-15-------|-------------------------------------------------|
Eb|-------------------------------------------------|-------------------------------------------------|
(Guitar 2)
Eb|---------------------------------|---------------------------------|
Bb|---------------------------------|---------------------------------|
Gb|-7-7-7-7---x-7---5---x-5---x-5---|-3---x-3---x-3---5---x-5---x-5---|rpt
Db|-5-5-5-7---x-7---5---x-5---x-5---|-3---x-3---x-3---5---x-5---x-5---|x4
Ab|-5-5-5-5---x-5---3---x-3---x-3---|-1---x-1---x-1---3---x-3---x-3---|
Eb|---------------------------------|---------------------------------|
   PM....

(Both Guitars)
Eb|---------------------------------|---------------------------------|
Bb|---------------------------------|---------------------------------|
Gb|-7---7-7-7-7-7-7-5---5-5-5-5-5-5-|-3---3-3-3-3-3-3-5---5-5-5-5-5-5-|rpt
Db|-7---7-7-7-7-7-7-5---5-5-5-5-5-5-|-3---3-3-3-3-3-3-5---5-5-5-5-5-5-|x2
Ab|-5---5-5-5-5-5-5-3---3-3-3-3-3-3-|-1---1-1-1-1-1-1-3---3-3-3-3-3-3-|
Eb|---------------------------------|---------------------------------|
        PM.........     PM.........       PM.........     PM.........
(Both Guitars)
Eb|---------------------------------|---------------------------------|
Bb|---------------------------------|---------------------------------|
Gb|-2---2-2-2-2-2-2-3---3-3-3-3-3-3-|-2---2-2-2-2-2-2-5---5-5-5-5-5-5-|rpt
Db|-2---2-2-2-2-2-2-3---3-3-3-3-3-3-|-2---2-2-2-2-2-2-5---5-5-5-5-5-5-|x2
Ab|-0---0-0-0-0-0-0-1---1-1-1-1-1-1-|-0---0-0-0-0-0-0-3---3-3-3-3-3-3-|
Eb|---------------------------------|---------------------------------|
        PM.........     PM.........       PM.........     PM.........


Outro (repeat until fade)
Eb|---------------------------------|---------------------------------|
Bb|---------------------------------|---------------------------------|
Gb|---------------------------------|---------------------------------|
Db|---------5~--------------2~------|---------4~--------------5~------|
Ab|-0-0-7~------7---0-0-3~------3---|-0-0-5~------5---0-0-7~------7---|
Eb|---------------------------------|---------------------------------|
   PM...           PM...             PM...           PM...

            
            
Suggest correction
Creating personal tab
Creating personal tab
You can edit any tab online and save it as your Personal.

You can edit, replace or remove any tab part or add personal notes – all changes will be seen only by you.

Personal tabs can be accessed anytime from any device, even offline.
Learn more »
Give kudos to tab author, rate the tab!
1 2 3 4 5
comments
print report bad tab
guest
You may want to rate the tab now too:
select rating
Wanna post a correction for this tab? Suggest correction