Oops, an error
Loading. Please wait.

Gwen Stacy - Gone Fishing See You In A Year bass

1,168 views 1 this week
no commentswrite comment
1 2 3 4 5
2 more votes to show rating
add to favorites
×
Save as Personal and add changes to this tab that will be seen only by you. Learn more ›
×
You can save this tab as Personal to edit and correct it or add notes. All changes will be seen only by you. Learn more »
launch autoscroll
font size
0
reset
guitar tuner
edit
Autoscroll
slow
fast
+/-
esc
set tempo
stop
soo...no tabs for this on bass yet, i thought i would make my version of the song.
p.s. please except this i have made like 5 tabs before this and they were all rejected


the website for this band since they are unsigned is myspace.com/gwenstacy


Tuning-(CGCF)


~ let ring


|--------------------------------------|
|--------------------------------------|
|--------------------------------------|
|-00--00000--00-0--00000---------------|  x4
then on the fifth time to the same as that ^ but let each note ring, do that x2
then do the same thing without letting each one ring then..

|-----------|
|-----------|
|-----------|
|2~~---THEN STOP!!!

guitar does its little thing


Verse
|----------------------------------------------|
|----------------------------------------------|
|--3-33-3333-33-333--7-77-77--5-55-55----------|
|----------------------------------------------|x4


breakdown fellas!
|----------------------------------------|
|----------------------------------------|
|----------------------------------------|
|--22222-22222--2-22222--22-000----------|


|---------------------------------------------------------------------------------|
|---------------------------------------------------------------------------------|
|---------------------------------------------------------------------------------|
|--10~-10~\(slide down to 1)-3/-(slide back up to 10)-10-10 x16----7-x28----------|x2

    ^after the 2nd 10 slide all the way down to 1 then grab 3, which is a Db and
slide back up to 10


then do the breakdown x4

then do the verse x4
then

|-------------------------------------|
|-------------------------------------|
|--3-33-3-33-33-3-33-33---------------|
|------------------------222--222-----|


|------------------------------------------|
|------------------------------------------|
|------------------------------------------|
|-0-00--0-00--00--break--0-00-0-00-00-000--|


|-----------------------------------|
|-----------------------------------|
|-----------------------------------|
|--3-(x16)--5-(x16)-----------------|x3


|-------------------------------------------|
|-------------------------------------------|
|----just silence now---what is this i see--|
|--3~~------------5~~-------------7---------|~- not sure how many times just listen to the song

|-----------------------------------------|
|-----------------------------------------|
|-----------------------------------------|
|--3-(x16)--5-(x16)--7-(x32)--------------|

DONT LOOK OVER THIS PART

c|--3~~-----

^^^^^^^^

|--------------------------------|
|--------------------------------|
|--------------------------------|
|--00-0-0---00-0-0---------------|


|---------------------------|
|---------------------------|
|---------------------------|
|--3-(x16)---5-(x16)--------|


|------------------------------------|
|------------------------------------|
|------------------------------------|
|---00-0-0--00-0-0-------------------|

|--------------------------|
|--------------------------|
|--------------------------|
|--00-0-0-000-000-00-0-0-x-|2  then just do a open and do the intro again and thats it


im pretty sure this is 95% correct at least
its really an easy song but fun to play XD

            
            
Suggest correction
Creating personal tab
Creating personal tab
You can edit any tab online and save it as your Personal.

You can edit, replace or remove any tab part or add personal notes – all changes will be seen only by you.

Personal tabs can be accessed anytime from any device, even offline.
Learn more »
Give kudos to tab author, rate the tab!
1 2 3 4 5
comments
print report bad tab
guest
You may want to rate the tab now too:
select rating
Wanna post a correction for this tab? Suggest correction