Oops, an error
Loading. Please wait.

Hatten Ar Din chords

31 views 1 this week
no commentswrite comment
1 2 3 4 5
3 more votes to show rating
add to favorites
×
Save as Personal and add changes to this tab that will be seen only by you. Learn more ›
×
You can save this tab as Personal to edit and correct it or add notes. All changes will be seen only by you. Learn more »
launch autoscroll
font size
0
reset
transpose
0
reset
display chords
guitar tuner
edit
Autoscroll
slow
fast
+/-
esc
set tempo
stop
Author
Difficulty
Strumming
There is no strumming pattern for this song yet. and get +5 IQ
[Intro]

e|--7--12--7-8-7-8-7--------------------------------------------------|
B|--------------------7--10--7-8-7-8-7--5-----------------------------|
G|--------------------------------------------------------------------|
D|--------------------------------------------------------------------|
A|--------------------------------------------------------------------|
E|--------------------------------------------------------------------|

e|--------------------------------------------------------------------|
B|--5--7-8--7-5-7-8--10--8-7--7--8-10--8-7-8-10-12-10-8---------------|
G|--------------------------------------------------------------------|
D|--------------------------------------------------------------------|  X2
A|--------------------------------------------------------------------|
E|--------------------------------------------------------------------|

Em    D
Åååååååhhh
Em          G
Vinna kinky roligt
Em          D
Vinna kinky roligt
C              D         Em
Hatten är din, hatten är din
D          Em
Hatt-baby, hatt-baby
Em                  G
Den hatten lever så roligt
Em                  D
Den hatten lever så roligt
C              D         Em
Hatten är din, hatten är din
D              Em
Hatt-baby hatt-baby
D              Em
Det här är förjävligt
C                  D
Det tycker vi blir bögigt
Em             B
Det alltid var roligt
C              Em
Hatten är din, hatten är din
D              Em
Hatt-baby hatt-baby
C              Em
Hatten är din, hatten är din
D              Em
Hatt-baby hatt-baby

e|--------------------------------------------------------------------|
B|--5--7-8--7-5-7-8--10--8-7--7--8-10--8-7-8-10-12-10-8---------------|
G|--------------------------------------------------------------------|
D|--------------------------------------------------------------------|
A|--------------------------------------------------------------------|
E|--------------------------------------------------------------------|

Em    D
Åååååååhhh
Em             D
Cool kille med läsk I hand
C                   D
Ja, det tycker vi - nånting sött
Em             D
Cool kille med läsk I hand
C                   D
Ja, det tycker vi - nånting sött
Em             C             G
Välte hatten i Berts cola-au-lait
Em             C             G
Välte hatten i Berts cola-au-lait
C
Men sen visste nog du, att baby
B
Men sen visste nog du, hatt baby
C
Men sen visste nog du, att baby
B
Men sen visste nog du, hatt baby
Em             D
Hatten är din, hatten är din
C              B
Hatten är din, hatten är din

e|--------------------------------------------------------------------|
B|--5--7-8--7-5-7-8--10--8-7--7--8-10--8-7-8-10-12-10-8---------------|
G|--------------------------------------------------------------------|
D|--------------------------------------------------------------------|
A|--------------------------------------------------------------------|
E|--------------------------------------------------------------------|

Em    D
Åååååååhhh
Em        D
Låna LP:n Hatten är din
C                      B
Man kan klä ut sej och hångla i TV
Em        D
Lana LP:n Hatten är din
C                  B
Man kan knarka och hamna i TV
C                   B
Hatten är visst det din, din!
C                   B
Hatten är visst det din, din!
C
Alla vet varför och allt blir perfekt
G
Alla vet varför och allt blir perfekt
C
Alla vet varför och allt blir perfekt
G
Alla vet varför och allt blir perfekt
Em             D
Hatten är din, hatten är din
C              B
Hatten är din, hatten är din

e|--------------------------------------------------------------------|
B|--5--7-8--7-5-7-8--10--8-7--7--8-10--8-7-8-10-12-10-8---------------|
G|--------------------------------------------------------------------|
D|--------------------------------------------------------------------|
A|--------------------------------------------------------------------|
E|--------------------------------------------------------------------|

Em    D
Åååååååhhh
Em             G
Limma skinkbit cooligt
Em             D
Limma skinkbit cooligt, cooligt
C              D         Em
Hatten är din, hatten är din
D               Em
Hatt-baby, hatt-baby
Em                      G
Ja, det hatten lever så roligt
Em                  D
Ja, hatten lever så roligt
C              D         Em
Hatten är din, hatten är din
D               Em
Hatt-baby, hatt-baby
D              Em
Det här är förjävligt
C                  D
Det tycker vi blir bögigt
Em             B
Det alltid var roligt
C              Em
Hatten är din, hatten är din
C              D
Hatt-baby hatt-baby
C              Em
Hatten är din, hatten är din
C              D
Hatt-baby hatt-baby

e|--------------------------------------------------------------------|
B|--5--7-8--7-5-7-8--10--8-7--7--8-10--8-7-8-10-12-10-8---------------|
G|--------------------------------------------------------------------|
D|--------------------------------------------------------------------| X2
A|--------------------------------------------------------------------|
E|--------------------------------------------------------------------|

            
            
Suggest correction
Creating personal tab
Creating personal tab
You can edit any tab online and save it as your Personal.

You can edit, replace or remove any tab part or add personal notes – all changes will be seen only by you.

Personal tabs can be accessed anytime from any device, even offline.
Learn more »
Give kudos to tab author, rate the tab!
1 2 3 4 5
comments
print report bad tab
guest
You may want to rate the tab now too:
select rating
Wanna post a correction for this tab? Suggest correction