Oops, an error
Loading. Please wait.

In Credo - Siesta Del Sol tab

1,936 views 6 this week
1 commentread comment
1 2 3 4 5
x 4
add to favorites
×
Save as Personal and add changes to this tab that will be seen only by you. Learn more ›
×
You can save this tab as Personal to edit and correct it or add notes. All changes will be seen only by you. Learn more »
launch autoscroll
font size
0
reset
how to read this tab
guitar tuner
edit
Autoscroll
slow
fast
+/-
esc
set tempo
stop
-------------------------------------------------------------------------------
                             Siesta Del Sol - In Credo
-------------------------------------------------------------------------------
Tabbed by: Jack Wells
E-mail: omgtofu@gmail.com

Tuning: standard with capo on 4th fret

guitar #1
e----------------------------------------------------------------------|
b----5----5p0-------5----5p0-------5----5p0----5-------5----5p0----5---|
g----0-------0------0-------0------0-------0----0------0-------0----0--|
d----6--------------6--------------6-------------------6---------------|
a--0-0--0---------0-0--0---------0-0--0-------0------0-0--0-------0----|
E----------------------------------------------------------------------|


e----------------------------------------------------------------|
b---5---5---5---5---5-----0---0---0---5---0----------------------|
g----0---0---0---0---0-----0---0---0---0---0--| x2    -------\---|
d-----6---6---6---6---6-----6---6---6---6---6--------------------|               \
a--0--------------------0----------------------------------------|                \
E----------------------------------------------------------------|                 \
                                                                 \  XX repeat for entire song
                                                                 /
                                                                /
e-------0---0---------------------------------------------------|                /
b---5-----5---5----0---0---7---5---0----------------------------|               /
g----0--------------0---0---0---0---0---------| x2    ----------|
d-----6--6-6-6-6-----6---6---6---6---6--------------------------|
a--0--------------0---------------------------------------------|
E---------------------------------------------------------------|


guitar #2    comes in after first completion of XX

e------------------------------------------------------|
b------------------------------------------------------|
g-----------------0h6-6---------------0-0h6-0----------|
d----0h6-0----0h6----------0h6-0--0h6---------6-0h6----|
a--0--------0------------0-----------------------------|
E------------------------------------------------------|


e------------------------------------------------------|
b----------5-5s7-5---777--5----------------------------|
g------0-6---------6--------6-0--0h6-0-----------------|
d--0h6----------------------------------6-0h6--6-0-6-0-|
a------------------------------------------------------|
E------------------------------------------------------|


e------------------------------------------------------|
b--5/7-5-5---7/9-7-7---5-5/7-5--7/9--------------------|
g------------------------------------6-6-----0---------|
d------------------------------------------------------|
a------------------------------------------------------|
E------------------------------------------------------|

interlude...

guitar #2 continues

e--11-11-11--9-----------------------------------------|
b--------------9--9-9--7-7--5-5--0-0-------------------|
g-------------------------------------0-6--0h6-0-------|
d------------------------------------------------0h6p0-|   x2
a------------------------------------------------------|
E------------------------------------------------------|


e---12----11----9----11----9------12----11----9----11----9--11-9---11-9---11-9---11-9---11-9---|
b-9-----9-----9----9-----9------9-----9-----9----9-----9---------9------9------9------9------9-|
g----------------------------------------------------------------------------------------------|
d----------------------------------------------------------------------------------------------|
a----------------------------------------------------------------------------------------------|
E----------------------------------------------------------------------------------------------|

e------------------------------------------|
b--------------5h7-5-----------------5h7-5-|
g-------0h6-6-----------------0h6-6--------|
d---0h6-------------------0h6--------------|
a-0---------------------0------------------|
E------------------------------------------|


e--11-11-11--9---------------------|
b--------------9--7-7--5--0-0--5-0-|
g----------------------------------|
d----------------------------------|
a----------------------------------|
E----------------------------------|


e--11-11-11--9-----------------------------------------------|
b--------------9--9-9--7-7--5-5--0-0-------------------------|
g-------------------------------------0-6--0h6-0-0h6-6-6/8-6-|
d------------------------------------------------------------|
a------------------------------------------------------------|
E------------------------------------------------------------|


e--------------------------11-9-----11-9-----11-9---|
b---9--7--5----------------9----9---9----9---9----9-|
g---------------6-6---------------------------------|
d---------------------------------------------------|
a---------------------------------------------------|
E---------------------------------------------------|


e-11-9---11-9---11-9---11-9---11-9---------------------|
b------9------9------9------9------9-9-9--5h7-5-5--0-0-|
g------------------------------------------------------|
d------------------------------------------------------|
a------------------------------------------------------|
E------------------------------------------------------|


e----------------------------------------------------------------------11-11-11-11-11-----99999-|
b-------5-7-5-7p5-----777--777-5----------55--77--99----55--77--99999---------------------------|
g--0-6------------6--------------6-0-6-6--------------------------------------------------------|
d-----------------------------------------------------------------------------------------------|
a-----------------------------------------------------------------------------------------------|
E-----------------------------------------------------------------------------------------------|


************************************

| /   slide up
| h   hammer-on
| p   pull-off

************************************

            
            
Suggest correction
Creating personal tab
Creating personal tab
You can edit any tab online and save it as your Personal.

You can edit, replace or remove any tab part or add personal notes – all changes will be seen only by you.

Personal tabs can be accessed anytime from any device, even offline.
Learn more »
comments
print report bad tab
1 comment total.
0 reply
sfwhysoserious 10 Sep 20, 2016 06:25 PM

this is awesome and sounds just like the song.it was confusing at first though because you say put a capo on the 4th fret, then use frets 5 and 6 for tabbing instead of 1 and 2 as if the capo-d fret were zero. One i figured that out, the tab sounded great haha

guest
You may want to rate the tab now too:
select rating
Wanna post a correction for this tab? Suggest correction