Oops, an error
Loading. Please wait.

Japandroids - Young Hearts Spark Fires intro tab

3,147 views 1 this week
3 commentsread comments
1 2 3 4 5
x 4
add to favorites
×
Save as Personal and add changes to this tab that will be seen only by you. Learn more ›
×
You can save this tab as Personal to edit and correct it or add notes. All changes will be seen only by you. Learn more »
launch autoscroll
font size
0
reset
how to read this tab
guitar tuner
edit
Autoscroll
slow
fast
+/-
esc
set tempo
stop
Author
just figured this out by ear, the song is mainly this riff repeated with some slight variations


e|---------------------------------------------------------------------------|
B|---------------------------------------------------------------------------|
G|---------------------7-----------------------------------------------------|
D|-5-5-5-4-4----77777--7-----------------------------------------------------|
A|-5-5-5-5-5----77777--5-----------------------------------------------------|
E|-3-3-3-3-3----55555--------------------------------------------------------|


peas.

sandwichez.

            
            
Suggest correction
Creating personal tab
Creating personal tab
You can edit any tab online and save it as your Personal.

You can edit, replace or remove any tab part or add personal notes – all changes will be seen only by you.

Personal tabs can be accessed anytime from any device, even offline.
Learn more »
comments
print report bad tab
3 comments total.
0 reply
pauld_ 10 Aug 29, 2009 07:16 AM

I'm sorry I can't tell you exactly what it is, but I saw them, and that's not how Brian plays it. He plays in a dropped tuning, possibly drop D. This is the first two chords I saw him play. It sound good in drop D.

-5-5--5--5---5--
-8-8--8--8---7--
-7-7--7--7---7--
-5-5--5--5---5--
-5-5--5--5---5--
-5-5--5--5---5--

0 reply
Kennedy_28 130 Sep 02, 2009 07:13 AM

Yep its closer to that or:

-10-10--10--10---10--
-10-10--10--10---10--
-12-12--12--12---11--
-12-12--12--12---12--
-10-10--10--10---10--
-10-10--10--10---10--

0 reply
space- 10 Sep 30, 2009 07:41 PM

In drop D

intro
e|-5-5-5-5-----xxxx-----0--0----------------------------------------------------------|
B|-8-8-8-7-----8888-----5--7----------------------------------------------------------|
G|-7-7-7-7-----8888-----7--7----------------------------------------------------------|
D|-5-5-5-5-----xxxx-----0--0----------------------------------------------------------|
A|-5-5-5-5-----xxxx-----0--0----------------------------------------------------------|
E|-5-5-5-5-----7777-----0--0----------------------------------------------------------|

chorus
e|--5----0----------------------------------------------------------|
B|--7----7----------------------------------------------------------|
G|--7----7----------------------------------------------------------|
D|--5----0----------------------------------------------------------|
A|--5----0----------------------------------------------------------|
E|--5----0----------------------------------------------------------|

e|--5----0----x------------------------------------------------------|
B|--7----7----8------------------------------------------------------|
G|--7----7----8------------------------------------------------------|
D|--5----0----x------------------------------------------------------|
A|--5----0----x------------------------------------------------------|
E|--5----0----7------------------------------------------------------|

listen for rythm cause i'm not typing all this out, its not complicated.

breakdown thing?

i'm a little fuzzy on this so sorry

e|--x-->---x-->---10-->--5---------------------------------------------
B|--15->--19-->---12-->--7---------------------------------------------
G|--15->--19-->---12-->--7---------------------------------------------
D|--14->--17-->---10-->--5---------------------------------------------
A|--14->--17-->---10-->--5---------------------------------------------
E|--14->--17-->---10-->--5---------------------------------------------

thats all the chords Brian plays and you can just listen to it and jazz it up if you want. i suggest looking at their video at KEXP

guest
You may want to rate the tab now too:
select rating
Wanna post a correction for this tab? Suggest correction