Oops, an error
Loading. Please wait.

Jessica Bagley - Why tab

32 views 1 this week
no commentswrite comment
1 2 3 4 5
3 more votes to show rating
add to favorites
×
Save as Personal and add changes to this tab that will be seen only by you. Learn more ›
×
You can save this tab as Personal to edit and correct it or add notes. All changes will be seen only by you. Learn more »
launch autoscroll
font size
0
reset
how to read this tab
guitar tuner
edit
Autoscroll
slow
fast
+/-
esc
set tempo
stop
     ******************************************************************            
                         
                              WHY - Jessica Bagley
    
     ******************************************************************

Tabbed by: Jessica Bagley
E-mail: jessicabagley90@gmail.com

Tuning:Standard
Capo 6


Verse - 1st & 2nd line - Repeat tab line twice
    
e|--------2----------2-----------0-----------0------------------------------|
B|-----0----0-----0-----0-----1-----1-----1-----1---------------------------|
G|--0----------0-----------0-----------0------------------------------------|
D|--------------------------------------------------------------------------|
A|--------------------------------------------------------------------------|
E|--------------------------------------------------------------------------|

    I....                   like to sing a song
  
    After....               the long day is end and gone



Verse - 3rd & 4th line - Repeat tab line twice
 
    Em                      Am
e|-------0----------0---------0----------0----------------------------------|
B|----0-----0----0-----0---------1----------1-------------------------------|
G|--------------------------2----------2------------------------------------|
D|------------2----------2--------------------------------------------------|
A|--2-------------------------------2---------------------------------------|
E|--------------------------------------------------------------------------|

    Why....         do I...   feel this way
    
    Why....         do I feel like my heart has gone away


******************************************************************


VERSE 1
I....like to sing a song
After....the long day is end and gone
Em          Am
Why....do I feel this way
Em          Am
Why....do I feel like my heart has gone away


VERSE 2
I like to sing about the bitter things of my world that day
I.....tried to help them but I failed miserably
Em          Am
Why....do I care so much
Em          Am
Why....do I fail when I think I've tried enough


VERSE 3
I....miss you oh so much that it hurts
I know your work, school and all your busy-ness keeps you from my lonely heart
Em          Am
Why....do we go on this way
Em          Am                                             G   G   G   G
Why....do we even know another way, to the end of the road 
      
                                         
BRIDGE
Dm                       G
I find myself asking why
Dm                       G
I find myself asking why


VERSE 4
How....do we get from here to there
From....right here right now to our destined future, to share together
Em                               Am
Because now it seems that all we do is the dishes and wash underwear
Em           Am                 G        C       G       C
How....do we get there, from now 


VERSE 5
Oh....dear don't you see
I've....been blind, the answer is right here you see
Em          Am                 
This....is what it's all about
Em          Am                                                                   G  C  G  C
Finding your strength beyond the worry, the busy-ness, most of all, the doubt
                                                                
Hoooohoooohoooo

(End strumming C down once)


******************************************************************


            
            
Suggest correction
Creating personal tab
Creating personal tab
You can edit any tab online and save it as your Personal.

You can edit, replace or remove any tab part or add personal notes – all changes will be seen only by you.

Personal tabs can be accessed anytime from any device, even offline.
Learn more »
Give kudos to tab author, rate the tab!
1 2 3 4 5
comments
print report bad tab
guest
You may want to rate the tab now too:
select rating
Wanna post a correction for this tab? Suggest correction