Oops, an error
Loading. Please wait.

Justin Cross - Drink The Water chords

28,879 views 219 this week
2 commentsread comments
1 2 3 4 5
x 9
add to favorites
×
Save as Personal and add changes to this tab that will be seen only by you. Learn more ›
×
You can save this tab as Personal to edit and correct it or add notes. All changes will be seen only by you. Learn more »
launch autoscroll
font size
0
reset
transpose
0
reset
display chords
guitar tuner
edit
Autoscroll
slow
fast
+/-
esc
set tempo
stop
Author
Difficulty
Strumming
There is no strumming pattern for this song yet. and get +5 IQ
[Intro]

e|--------------------------------------------------------------|
B|--------------------------------------------------------------|
G|--------------------------------------------------------------|
D|--------------------------------------------------------------|
A|-----0--0--3----0--------0--0--3-2-------0--0--3--0-----------|
E|--3----------------0h3----------------3---------------4-------|(x2)


[Verse 1]

Am                   
I know of sin by the things momma prayed
Am                      E
I know of heaven by the line at its gate
Am                    
I know of truth and America's way
Am                          E
Come drink the water if you want to be saved

Am
Don't drink the water if it's not from my stream
Am                           E
It's all still water if it's not flowing free
Am
Don't drink the water at the watering hole
Am                         E
If you ain't got money, it can't save your soul


[Chorus]

F           E             Am
  All God's people said a-men
F           E             Am
  All God's people said a-men


[Verse 2]

Am                   
I know of sin by the things momma prayed
Am                      E
I know of heaven by the line at its gate
Am                    
I know of truth and America's way
Am                          E
Come drink the water if you want to be saved


[Chorus]

F           E             Am
  All God's people said a-men
F           E             Am
  All God's people said a-men


[Verse 3]

Am
Nobody prays unless they lose a son
Am                          E
Don't believe in God till a war's to be won
Am
I know of lies by the truths I've been told
Am                            E
The biggest one is that we're not growing old

Am
It's not a sin if it don't make me cry
Am                                E
He's not the devil unless there's fire in his eyes
Am
It ain't the ghost if it don't speak in tongue
Am                           E
It's not a victory 'till the battles been won


[Chorus]

F           E             Am
  All God's people said a-men
F           E             Am
  All God's people said a-men


[Outro]

                                                                     Am
e|-------------------------------------------------------------------0--|
B|-------------------------------------------------------------------3--|
G|-------------------------------------------------------------------2--|
D|----------------------------------------------------------2--0-----2--|
A|-----0--0--3----0--------0--0--3--------0--0--3--0--------------3--0--|
E|--3----------------0h3-------------3-----------------4-------------0--|



************************************

| h  Hammer-on

************************************

            
            
Suggest correction
Creating personal tab
Creating personal tab
You can edit any tab online and save it as your Personal.

You can edit, replace or remove any tab part or add personal notes – all changes will be seen only by you.

Personal tabs can be accessed anytime from any device, even offline.
Learn more »
comments
print report bad tab
2 comments total.
0 reply
gergaginflopple 10 Nov 05, 2012 06:14 PM

The E in the chorus should be a G, and the E in the verses should have a finger on the 3rd fret of the b string as best I can tell by the recording.

0 reply
kenneth.hansen. 45 Aug 02, 2014 05:42 AM

Agree about the corrections. How about the tab for the rest of the song

guest
You may want to rate the tab now too:
select rating
Wanna post a correction for this tab? Suggest correction