Oops, an error
Loading. Please wait.

Kinbaum - Without You ukulele

20 views 1 this week
no commentswrite comment
1 2 3 4 5
3 more votes to show rating
add to favorites
×
Save as Personal and add changes to this tab that will be seen only by you. Learn more ›
×
You can save this tab as Personal to edit and correct it or add notes. All changes will be seen only by you. Learn more »
launch autoscroll
font size
0
reset
transpose
0
reset
simplify chords
display chords
guitar tuner
edit
Autoscroll
slow
fast
+/-
esc
set tempo
stop
Strumming
There is no strumming pattern for this song yet. and get +5 IQ
tuning B F# B F# B B 

chords used:  D   A    Asus    G    Esus    F#sus    B    High D
            b-0   0     0      0     0        0      0      0    
            b-0   0     0      0     0        0      0      0
           f#-0   0     0      0     0        0      0      0
            b-0   0     7      0     2        4      0      12
           f#-0   7     0      5     0        0      9      0
            b-0   7     7      5     2        4      9      12

Intro:    Piano intro

          G1:     D           A           G          Esus     Asus x2
          G2:   b--------------------------------------------------------|
                b--------------------------------------------------------|
               f#-12----------12----------10----------9----9----7----7---|
                b----12-11-12----12-11-9-----12-11-12---12---12---11---11|
               f#--------------------------------------------------------|
                b--------------------------------------------------------|

Verse 1:   D                   A
                 Always and forever,
                                     G       
                 I just want you to know.
                                            Esus
                 I will always be there for you,
                        Asus               D
                 no matter how far you go.
                                        A
                 You can travel by the sea,
                                        G   
                 you can travel in the air.
                                      Asus
                 By camel across the desert,
                                   Esus
                 I will always be there.

Pre-chorus:      Asus               F#sus
                 I will always be there.
                 Asus                    D
                 Yeah I will always be there.

Chorus x2:                                A
                 What we share feels so right,
                                           B
                 to say i love you every night.
                                      G
                 Wonderful moments shared,
                          Asus               D
                 memories still tell me you care.

Continued G1:     D           A           G          Esus     Asus x2
          G2:   b--------------------------------------------------------|
                b--------------------------------------------------------|
               f#-12----------12----------10----------9----9----7----7---|
                b----12-11-12----12-11-9-----12-11-12---12---12---11---11|
               f#--------------------------------------------------------|
                b--------------------------------------------------------|


Verse 2:    D                            A
                 You are the sun in the sky,
                                G
                 a fish in the sea.
                              Esus
                 A song bird singing,
                      Asus      D
                 a big part of me.
                                                 A
                 I want you to know that i love you,
                                             G
                 you will forever be in my heart.
                                                  Asus
                 You bless my life with so much pleasure,
                                      Esus
                 Without you I'd fall apart.

Pre-chorus 2:     Asus                F#sus                
                 Without you I'd fall apart.
                  Asus               D
                 Yeah now I'd fall apart.


Chorus x2:                                A
                 What we share feels so right,
                                           B
                 to say i love you every night.
                                      G
                 Wonderful moments shared,
                          Asus               D
                 memories still tell me you care.

Continued G1:     D           A           G          Esus     Asus 
          G2:   b--------------------------------------------------------|
                b--------------------------------------------------------|
               f#-12----------12----------10----------9----9----7----7---|
                b----12-11-12----12-11-9-----12-11-12---12---12---11---11|
               f#--------------------------------------------------------|
                b--------------------------------------------------------|


Outro:    G1:     D           A           G          Esus     Asus 
          G2:   b--------------------------------------------------------|
                b--------------------------------------------------------|
               f#-12----------12----------10----------9----9----7----7---| 
                b----12-11-12----12-11-9-----12-11-12---12---12---11---11|
               f#--------------------------------------------------------|
                b--------------------------------------------------------|
End on High D

            
            
Suggest correction
Creating personal tab
Creating personal tab
You can edit any tab online and save it as your Personal.

You can edit, replace or remove any tab part or add personal notes – all changes will be seen only by you.

Personal tabs can be accessed anytime from any device, even offline.
Learn more »
Give kudos to tab author, rate the tab!
1 2 3 4 5
comments
print report bad tab
guest
Wanna post a correction for this tab? Suggest correction