Oops, an error
Loading. Please wait.

Kool Shades - Policia tab

153 views 1 this week
3 commentsread comments
1 2 3 4 5
1 last vote to show rating
add to favorites
×
Save as Personal and add changes to this tab that will be seen only by you. Learn more ›
×
You can save this tab as Personal to edit and correct it or add notes. All changes will be seen only by you. Learn more »
launch autoscroll
font size
0
reset
how to read this tab
guitar tuner
edit
Autoscroll
slow
fast
+/-
esc
set tempo
stop
Author
Policia
Kool Shades
Live From The Sun
tabbed by athsmador- anothervivacarter@yahoo.com


!! THE SECOND KOOL SHADES TAB EVER!!!!

Corrections-11/12- changed alternate verse by one note 
keyboard intro:
the rhytmns off a little, n the notes might be just a little off 
E|------------------------------| 
B|------------------------------|
G|------------------------------| 
D|------------------------------|
A|------------------------------|
E|-0-0-0h5-5-5-5-22222-252-00---|

or this way:
E|-----------------------------| 
B|-----------------------------|
G|-----------------------------| 
D|--------7-7-7---------7------|
A|-7-11-77-------9999-9---9-77-|
E------------------------------|

chorus play these softly or appegiate em
E|--0----5----2-----------| 
B|--0----5----2-----------|
G|--0----5----3-----------| 
D|--2----7----4-----------|
A|--2----7----4-----------|
E|--0----5----2-----------|

if your trying to play it a keyboard, the notes are (in order) E, A, F#, F#, A, F#, E 

have fun

            
            
Suggest correction
Creating personal tab
Creating personal tab
You can edit any tab online and save it as your Personal.

You can edit, replace or remove any tab part or add personal notes – all changes will be seen only by you.

Personal tabs can be accessed anytime from any device, even offline.
Learn more »
Give kudos to tab author, rate the tab!
1 2 3 4 5
comments
print report bad tab
3 comments total.
0 reply
TheReverend724 1,085 Nov 11, 2006 07:08 PM

Dude its pretty good but not perfect there different notes but the melody's still the same, the second 7 is a 11 on the a string. peace

0 reply
TheReverend724 1,085 Mar 31, 2007 06:40 PM

dude i figured out the intro its
--------------------------------
--------------------------------
--------------------------------
----6777------6-----------------
7-77-----9999----9---77---------
--------------------------------
it looks weird but u can figure it out

0 reply
TheReverend724 1,085 Mar 31, 2007 06:43 PM

the lower octave part of the intro is
---------------------------
---------------------------
---------------------------
---------------------------
---------------------------
000-4555-22222-2-4--2-00---

guest
You may want to rate the tab now too:
select rating
Wanna post a correction for this tab? Suggest correction