Oops, an error
Loading. Please wait.

Korda Marshall - One Way Track tab

180 views 3 this week
no commentswrite comment
1 2 3 4 5
3 more votes to show rating
add to favorites
×
Save as Personal and add changes to this tab that will be seen only by you. Learn more ›
×
You can save this tab as Personal to edit and correct it or add notes. All changes will be seen only by you. Learn more »
launch autoscroll
font size
0
reset
how to read this tab
guitar tuner
edit
Autoscroll
slow
fast
+/-
esc
set tempo
stop
RIFF 1 (intro)

Guitar 1 (Gary)

e|---------------9/10\9--------------------------|
b|-------------------------------------10---7----|
g|-----(p)-------6/7-\6-(p)-----9\7----9----7----|
D|-----5-4-----7--------7-0---7------------------| X 2
A|---2-----4-5------------------7\5--------------|
D|-5------------------------7-------0------------|


Guitar 2 (James)


e|-----------------------------------------------|
b|-----------------------------------------------|
g|-----(p)-------6/7-\6-(p)---6-------7-9-11\7---|
D|-----5-4-----7--------7-0-----5-4-0------------| X 2
A|---2-----4-5------------------------5-7--9\5-0-|
D|-5------------------------7--------------------|



VERSE 1 

Guitar 1

e|-17-17--17-17-17-17-17-17-17----17-17-x-x-17-17-17-17-17-17-17-|
b|---------------------------------------------------------------|
g|-12-12--12-12-12-12-12-12-12----12-12-x-x-12-12-12-12-12-12-12-|
D|---------------------------------------------------------------| 
A|---------------------------------------------------------------|
D|---------------------------------------------------------------|


e|-17-17-x-x-17-17-17-17-17-17-17--------------------------------|
b|---------------------------------------------------------------|
g|-12-12-x-x-12-12-12-12-12-12-12----6-7-6-7-6-7-6-7-6-7-6-7-6---|
D|---------------------------------------------------------------| 
A|---------------------------------------------------------------|
D|---------------------------------------------------------------|


Guitar 2


e|---------------------------------------------------------------|
b|---------------------------------------------------------------|
g|-4-4-------7-7--------------------6-6----------11-12-14-11-11--|
D|-----(pm)-----------------------------(pm)---------------------| 
A|-5-5--5-5--9-9--------------------7-7--7-7-----12-12-12-12-12--|
D|-5-5--5-5--9-9--------------------7-7--7-7-----12-12-12-12-12--|


e|---------------------------------------------------------------|
b|---------------------------------------------------------------|
g|-4-4-------7-7--------------------9-9-----------2-2-2----------|
D|-----(pm)---------------------------------------0-0-0-2-2-2-2--| 
A|-5-5--5-5--9-9--------------------7-7-----------0-0-0-2-2-2-2--|
D|-5-5--5-5--9-9--------------------7-7-----------0-0-0-2-2-2-2--|


CHORUS

e|------------------------------|
b|------------------------------|
g|---2---0-0-----7-7\6-6/11-11--|
D|-----------4-0----------------| X 4
A|-4---5---------9-9\7-7/12-12--|
D|-4---5---------9-9\7-7/12-12--|


RIFF 1

Guitar 1 (Gary)

e|---------------9/10\9--------------------------|
b|-------------------------------------10---7----|
g|-----(p)-------6/7-\6-(p)-----9\7----9----7----|
D|-----5-4-----7--------7-0---7------------------| X 2
A|---2-----4-5------------------7\5--------------|
D|-5------------------------7-------0------------|


Guitar 2 (James)


e|-----------------------------------------------|
b|--------------------------------------(h)--(p)-|
g|----------------------------------7-9-9-11-7-0-|
D|-----------------------------------------------| 
A|-----------------------------------------------|
D|-----------------------------------------------|

e|------------------------------------------------|
b|------------------------------------------------|
g|-----(p)-------6/7-\6-(p)---6-------------------|
D|-----5-4-----7--------7-0-----5-4-0-----(h)-----|
A|---2-----4-5------------------------5-7-7-9\5-0-|
D|-5------------------------7---------------------|



VERSE 2 

Guitar 1


e|------------------------------------------------10-----9-------|
b|-7--------8--------10---------------7-----8-----10-----10------|
g|-7--------7--------7----------------7-----7-----7------7-------|
D|---------------------------------------------------------------| 
A|---------------------------------------------------------------|
D|---------------------------------------------------------------|


e|-17-17--17-17-17-17-17-17-17----17-17-x-x-17-17-17-17-17-17-17-|
b|---------------------------------------------------------------|
g|-12-12--12-12-12-12-12-12-12----12-12-x-x-12-12-12-12-12-12-12-|
D|---------------------------------------------------------------| 
A|---------------------------------------------------------------|
D|---------------------------------------------------------------|


e|-17-17-x-x-17-17-17-17-17-17-17--------------------------------|
b|---------------------------------------------------------------|
g|-12-12-x-x-12-12-12-12-12-12-12----6-7-6-7-6-7-6-7-6-7-6-7-6---|
D|---------------------------------------------------------------| 
A|---------------------------------------------------------------|
D|---------------------------------------------------------------|


Guitar 2

e|-----------------------------------------------------------------|
b|-----------------------------------------------------------------|
g|-----------------------------------------------------------------|
D|(pm)(pm)(pm)(pm)(pm)(pm)(pm)(pm)(pm)(pm)(pm)(pm)(pm)(pm)(pm)(pm)-| 
A|-----------------------------------------------7-7-7-7-7-7-7-7-7-|
D|-5-5-5-5-5-5-5-9-9-9-9-9-9-9-9-9-7-7-7-7-7-7-7-------------------|

e|-----------------------------------------------------------------|
b|-----------------------------------------------------------------|
g|-----------------------------------------------------------------|
D|(pm)(pm)(pm)(pm)(pm)(pm)(pm)(pm)(pm)(pm)(pm)(pm)(pm)(pm)(pm)(pm)-| 
A|-----------------------------------------------7-7-7-7-9-9-9-9-9-|
D|-5-5-5-5-5-5-5-9-9-9-9-9-9-9-9-9-7-7-7-7-7-7-7-------------------|

e|-------------------------------------------------------------------|
b|-------------------------------------------------------------------|
g|-4-4---------7-7--------------------6-6----------11-12-14-11-11-11-|
D|-----(pm)(pm)-------(pm)(pm)(pm)-------(pm)(pm)--------------------| 
A|-5-5--5-5-5--9-9-----9-9-9-9-9------7-7--7-7-7---12-12-12-12-12-12-|
D|-5-5--5-5-5--9-9-----9-9-9-9-9------7-7--7-7-7---12-12-12-12-12-12-|


e|-----------------------------------------------------------------|
b|-----------------------------------------------------------------|
g|-4-4----------7-7-------------------9-9-----------2-2-2----------|
D|-----(pm)(pm)------(pm)(pm)(pm)--------(pm)(pm)---0-0-0-2-2-2-2--| 
A|-5-5--5-5-5---9-9----9-9-9-9-9------7-7--7-7-7----0-0-0-2-2-2-2--|
D|-5-5--5-5-5---9-9----9-9-9-9-9------7-7--7-7-7----0-0-0-2-2-2-2--|


CHORUS

e|------------------------------|
b|------------------------------|
g|---2---0-0-----7-7\6-6/11-11--|
D|-----------4-0----------------| X 4
A|-4---5---------9-9\7-7/12-12--|
D|-4---5---------9-9\7-7/12-12--|


BRIDGE

Guitar 1 

e|---------------------------------------------|
b|---------------------------------------------|
g|-10-10-10-10-10-10-10-10-10-10\9-9-9-9-9-9-9-|
D|---------------------------------------------| 
A|-8--8--8--8--8--8--8--8--8---8\7-7-7-7-7-7-7-|
D|---------------------------------------------|

e|-----------------------------------------------------|
b|-----------------------------------------------------|
g|-9-9-9/11-11\2--11-11-11-11-x-11-x-11-11-x-x-9-x-x-7-|
D|-------------0---------------------------------------| 
A|-7-7-7/9---9\0--9--9--9--9--x-9--x-9--9--x-x-7-x-x-5-|
D|-------------0---------------------------------------|

e|---------------------------------------------|
b|---------------------------------------------|
g|-10-10-10-10-10-10-10-10-10-10\9-9-9-9-9-9-9-|
D|---------------------------------------------| 
A|-8--8--8--8--8--8--8--8--8---8\7-7-7-7-7-7-7-|
D|---------------------------------------------|

e|---------------------------------------------|
b|---------------------------------------------|
g|-9-9-9/11-11\2--11-12-14-14\2----------------|
D|-------------0--------------0----------------| 
A|-7-7-7/9---9\0---9-10-12-12\0----------------|
D|-------------0--------------0----------------|

e|----------------------------------------------------|
b|----------------------------------------------------|
g|-10-10-10-10-10-10-10-10-10-10/11-11-11-11-11-11-11-|
D|----------------------------------------------------| 
A|-8--8--8--8--8--8--8--8--8---8/9--9--9--9--9--9--9--|
D|-------------------------------0--0--0--0--0--0--0--|

e|-------------------------------------------------|
b|-------------------------------------------------|
g|---------------------------(bu)(bd)----(bu)(bd)--|
D|-10-10-10-10-10-10---------7-(8)-7-----7-(8)-7---| 
A|-8--8--8--8--8--8-------5------------------------|
D|-8--8--8--8--8--8----5--------------5------------|

Guitar 2

e|-0-0-0-0-0-0-0-0-0-0-0-0-0-0-2-2-2-2-2-2-2-2-2-2-2-2-2-2-|
b|-1-1-1-1-1-1-1-1-1-1-1-1-1-1-3-3-3-3-3-3-3-3-3-3-3-3-3-3-|
g|-0-0-0-0-0-0-0-0-0-0-0-0-0-0-2-2-2-2-2-2-2-2-2-2-2-2-2-2-|
D|-3-3-3-3-3-3-3-2-2-2-2-2-2-2-0-0-0-0-0-0-0-0-0-0-0-0-0-0-| 
A|-3-3-3-3-3-3-3-3-3-3-3-3-3-3-0-0-0-0-0-0-0-0-0-0-0-0-0-0-|
D|-----------------------------0-0-0-0-0-0-0-0-0-0-0-0-0-0-|


e|-0-0-0-0-0-0-0-0-0-0-0-0-0-0-2-2-2-2-2-2-2-2-2-2-2-2-2-2-|
b|-1-1-1-1-1-1-1-1-1-1-1-1-1-1-3-3-3-3-3-3-3-3-3-3-3-3-3-3-|
g|-0-0-0-0-0-0-0-0-0-0-0-0-0-0-2-2-2-2-2-2-2-2-2-2-2-2-2-2-|
D|-3-3-3-3-3-3-3-2-2-2-2-2-2-2-0-0-0-0-0-0-0-0-0-0-0-0-0-0-| 
A|-3-3-3-3-3-3-3-3-3-3-3-3-3-3-0-0-0-0-0-0-0-0-0-0-0-0-0-0-|
D|-----------------------------0-0-0-0-0-0-0-0-0-0-0-0-0-0-|


e|-0-0-0-0-0-0-0-2-2-2-2-2-2-|
b|-1-1-1-1-1-1-1-3-3-3-3-3-3-|
g|-0-0-0-0-0-0-0-2-2-2-2-2-2-|
D|-3-3-3-3-3-3-3-0-0-0-0-0-0-| 
A|-3-3-3-3-3-3-3-0-0-0-0-0-0-|
D|---------------0-0-0-0-0-0-|


e|----------------------------------|
b|----------------------------------|
g|----------------------------------|
D|-10-10-10-10-10-10---7-7-7-7-7-7\-| 
A|-8--8--8--8--8--8----5-5-5-5-5-5\-|
D|-8--8--8--8--8--8----5-5-5-5-5-5\-|


RIFF 2

Guitar 1

e|------------------------------------------------------------|
b|------------------------------------------------------------|
g|------------------------------------------------------------|
D|-------(bu)-------(bu)---------------(bu)-------(bu)--------| 
A|-------4-(5)------4-(5)--------------4-(5)------4-(5)-(pm)--|
D|-0-0-0-------0-0-0-----0-0-----0-0-0-------0-0-0------0-0-0-|

Guitar 2

e|------------------------------------------------------------|
b|------------------------------------------------------------|
g|------------------------------------------------------------|
D|-----------------------0-0----------------------------0-0-0-| 
A|-----------------------0-0----------------------------0-0-0-|
D|-----------------------0-0----------------------------0-0-0-|

CHORUS

e|------------------------------|
b|------------------------------|
g|---2---0-0-----7-7\6-6/11-11--|
D|-----------4-0----------------| X 8
A|-4---5---------9-9\7-7/12-12--|
D|-4---5---------9-9\7-7/12-12--|

LEAD GUITAR OVER LAST CHORUS

e|------------------------------|
b|-------10-------10-------10---|
g|-7-9-7----7-9-7----9-7-9------|
D|------------------------------| X 8
A|------------------------------|
D|------------------------------|


END RIFF

Guitar 1

e|------------------------------------------------------|
b|------------------------------------------------------|
g|------------------------------------------------------|
D|-------(bu)-------(bu)---------------(bu)-------(bu)--| 
A|-------4-(5)------4-(5)--------------4-(5)------4-(5)-|
D|-0-0-0-------0-0-0-----0-0-----0-0-0-------0-0-0------|

Guitar 2

e|------------------------------------------------------|
b|------------------------------------------------------|
g|------------------------------------------------------|
D|-----------------------0-0----------------------------| 
A|-----------------------0-0----------------------------|
D|-----------------------0-0----------------------------|


            
            
Suggest correction
Creating personal tab
Creating personal tab
You can edit any tab online and save it as your Personal.

You can edit, replace or remove any tab part or add personal notes – all changes will be seen only by you.

Personal tabs can be accessed anytime from any device, even offline.
Learn more »
Give kudos to tab author, rate the tab!
1 2 3 4 5
comments
print report bad tab
guest
You may want to rate the tab now too:
select rating
Wanna post a correction for this tab? Suggest correction