Oops, an error
Loading. Please wait.

Laurena - Permafrost ukulele

456 views 3 this week
no commentswrite comment
1 2 3 4 5
3 more votes to show rating
add to favorites
×
Save as Personal and add changes to this tab that will be seen only by you. Learn more ›
×
You can save this tab as Personal to edit and correct it or add notes. All changes will be seen only by you. Learn more »
launch autoscroll
font size
0
reset
transpose
0
reset
display chords
guitar tuner
edit
Autoscroll
slow
fast
+/-
esc
set tempo
stop
Author
Difficulty
Strumming
There is no strumming pattern for this song yet. and get +5 IQ
Here are most of the tabs for Permafrost by Laurena Segura! It’s missing the end bit and the musical interludes.
Based on the guitar tab: http://tabs.ultimate-guitar.com/m/misc_unsigned_bands/laurena_-_permafrost_tab.htm

Intro
A|---5---5---5---5
E|6-6-6-6-6-6-6-6-
C|----------------
G|-3---3---3---3—-

Verse 1
---5---5---5---5
6-6-6-6-6-6-6-6-
----------------
-3---3---3---3--
Sometimes I feel like I’m permafrost

---3---3---3---3
5-5-5-5-5-5-5-5-
----------------
-3---3---3---3—
Alone in the tundra and really lost

---1---1---1---1
3-3-3-3-3-3-3-3-
----------------
-3---3---3---3--
And to think that this is how I feel

---0---0---0---0
1-1-1-1-1-1-1-1-
----------------
-3---3---3---3—-
Like the ground is melting and nothing’s real

Verse 2 (same as 1)
And in the taiga everybody knows
That you shouldn't wander where the hemlock grows
Where the land is vast and the wind blows fast
Will you stay with me if the darkness lasts?

----------------
-3---3---3---3--
3-3-3-3-3-3-3-3-
---3---3---3---3
I know I have nothing to give
So may as well give up and live

Verse 3 (same as 1, 2)
You say I'm breaking your friend’s heart
But meanwhile you're tearing mine apart
So stop asking me if she loves you back
If it's charm you have then it's courage you lack

Verse 4
----------------
-5---5---5---5--
5-5-5-5-5-5-5-5-
---5---5---5---5
But I want your love and I want it now

-5---5---5---5--
---6---6---6---6
5-5-5-5-5-5-5-5-
----------------
I’d ask you for it but I don’t know how
----------------
-5---5---5---5--
5-5-5-5-5-5-5-5-
---5---5---5---5
I want to hold you tight and I want to now

-5---5---5---5--
---6---6---6---6
5-5-5-5-5-5-5-5-
----------------
I'd say I love you but I don't know how

----------------
-3---3---3---3--
3-3-3-3-3-3-3-3-
---3---3---3---3
It’s done, it’s done

Verse 5
---5---5---5---5
6-6-6-6-6-6-6-6-
----------------
-3---3---3---3--
And I remember when we rode the bus

---3---3---3---3
5-5-5-5-5-5-5-5-
----------------
-3---3---3---3—-
Through the boreal forest and the winter must

---1---1---1---1
3-3-3-3-3-3-3-3-
----------------
-3---3---3---3--
I put my head on your shoulder but you moved away

---3---3---3---3
5-5-5-5-5-5-5-5-
----------------
-3---3---3---3—-
I said I wasn’t tired anyway

Verse 6 (same as 4)
And I pretended that I didn't care
But I hid a few tears behind a lock of hair
And I was tired and I needed sleep
So I swallowed my pride and I changed seats
Again (x2)

Verse 7
----------------
-5---5---5---5--
5-5-5-5-5-5-5-5-
---5---5---5---5
So I’d rather you make up your mind

-5---5---5---5--
---6---6---6---6
5-5-5-5-5-5-5-5-
----------------
A little faster, you’re such a waste of time
(x2)

Verse 8
----------------
-3---3---3---3—-
3-3-3-3-3-3-3-3-
--3---3---3---3-
And you wanted more but you needed less
Cause you think that you’re better than the rest

…And that’s as far as I got. Please feel free to add/correct anything!

            
            
Suggest correction
Creating personal tab
Creating personal tab
You can edit any tab online and save it as your Personal.

You can edit, replace or remove any tab part or add personal notes – all changes will be seen only by you.

Personal tabs can be accessed anytime from any device, even offline.
Learn more »
Give kudos to tab author, rate the tab!
1 2 3 4 5
comments
print report bad tab
guest
You may want to rate the tab now too:
select rating
Wanna post a correction for this tab? Suggest correction