Oops, an error
Loading. Please wait.

Let It Go - Scott Naylor tab

74 views 1 this week
no commentswrite comment
1 2 3 4 5
3 more votes to show rating
add to favorites
×
Save as Personal and add changes to this tab that will be seen only by you. Learn more ›
×
You can save this tab as Personal to edit and correct it or add notes. All changes will be seen only by you. Learn more »
launch autoscroll
font size
0
reset
how to read this tab
guitar tuner
edit
Autoscroll
slow
fast
+/-
esc
set tempo
stop
Tunings

Guitar 1 - Eb Ab Db Gb Bb eb
Guitar 2 - Eb Ab Db Gb Bb eb
Guitar 3 - Eb Ab Db Gb Bb eb
Guitar 4 - Eb Ab Db Gb Bb eb
Bass - Eb Ab Db Gb


Drums

HH||-----------------------------x-x-|
 S||-----------------------------xx--|
 B||-------------------------------x-|

HH||-x-x-x-x-x-x-x-x-x-x-x-x-x-x-x-o-|-x-x-x-x-x-x-x-x-x-x-x-x-x-o-x-x-|
 S||-----x-------x-------x-------x---|-----x-------x-------x-------xx--| Played throughout
 B||-x-----x-x-------x-x-------x-----|-x-----x-x-------x-------x-x---x-| whole song




Main Theme

Guitar 1

eb||-----------------|-----------------|-----------------|-----------------|
Bb||-----------------|-----------------|-----------------|-----------------|
Gb||-----------------|-----------------|-----------------|-----------------|
Db||---------55555555|-----------------|---------55555555|-----------------|
Ab||-3333333333333333|-5555555577777777|-3333333333333333|-5555555577775555|
Eb||-11111111--------|-3333333355555555|-11111111--------|-3333333355553333|
PM   ................  ................  ................  ................


eb||-----------------|-----------------|-----------------|-----------------|
Bb||-----------------|-----------------|-----------------|-----------------|
Gb||---------5-------|-----------------|---------5-------|-----------------|
Db||-3-------55555555|-5-------7-------|-3-------55555555|-5-------7---3---|
Ab||-3333333333333333|-5555555577777777|-3333333333333333|-5555555577775555|
Eb||-11111111--------|-3333333355555555|-11111111--------|-3333333355553333|
PM    ....... .......   ....... .......   ....... .......   ....... ... ...


Guitar 2

eb||-----------------|
Bb||-----------------|
Gb||-----------------|
Db||-----------------| x2
Ab||-----------------|
Eb||-----------------|


eb||-----------------------------------|
Bb||-------6-6-6-5-5-------------------|
Gb||-----------------7-7-7-5-5-7-5h7p5-|
Db||-7-7-7-----------------------------| x2
Ab||-----------------------------------|
Eb||-----------------------------------|
Guitar 3

eb||-----------------|
Bb||-----------------|
Gb||-----------------|
Db||-----------------| x3
Ab||-----------------|
Eb||-----------------|


eb||-----------------|
Bb||-----------------|
Gb||-----------------|
Db||-----------------| 
Ab||-------x////////-|
Eb||-------x////////-|
            Pickslide


eb||---------------------------------|
Bb||---------------------------------|
Gb||-14-14-14--10--9--5-5-5--7-7-7-7-|
Db||---------------------------------| x4
Ab||-12-12-12--8---7--3-3-3--5-5-5-5-|
Eb||---------------------------------|


Bass

Gb||-----------------|-----------------|-----------------|-----------------|
Db||-----------------|-----------------|-----------------|-----------------|
Ab||---------33333333|-----------------|---------33333333|-----------------|
Eb||-11111111--------|-3333333355555555|-11111111--------|-3333333355553333|

Gb||-----------------|-----------------|-----------------|-----------------|
Db||-----------------|-----------------|-----------------|-----------------|
Ab||---------33333333|-----------------|---------33333333|-----------------|
Eb||-11111111--------|-3333333355555555|-11111111--------|-3333333355553333|




Verse 1

Guitar 1

eb||-----------------|-----------------|-----------------|-----------------|
Bb||-----------------|-----------------|-----------------|-----------------|
Gb||-----------------|-----------------|-----------------|-----------------|
Db||-7~--------------|-----------------|-----------------|-----------------|
Ab||-7~--------------|-----------------|-----------------|-----------------|
Eb||-5~--------------|-----------------|-----------------|-----------------|


eb||-----------------|-----------------|-----------------|-----------------|
Bb||-----------------|-----------------|-----------------|-----------------|
Gb||-----------------|-----------------|-----------------|-----------------|
Db||-7---------------|-----------------|-----------------|-5555555555555555|
Ab||-7777777777777777|-3333333333333333|-5555555555555555|-3333333333333333|
Eb||-5555555555555555|-1111111111111111|-3333333333333333|-----------------|
PM    ...............  ................  ................  ................


Guitar 3

eb||-----------------|-----------------|-----------------|-----------------|
Bb||-----------------|-----------------|-----------------|-----------------|
Gb||-14~-------------|-----------------|-----------------|--------------12/|
Db||-----------------|-----------------|-----------------|-----------------|
Ab||-12~-------------|-----------------|-----------------|--------------10/|
Eb||-----------------|-----------------|-----------------|-----------------|


eb||-----------------|-----------------|-----------------|-----------------|
Bb||-----------------|-----------------|-----------------|-----------------|
Gb||-14~-------------|-----------------|-----------------|-----------------|
Db||-----------------|-----------------|-----------------|-----------------|
Ab||-12~-------------|-----------------|-----------------|-----------------|
Eb||-----------------|-----------------|-----------------|-----------------|


Bass

Gb||-----------------|-----------------|-----------------|-----------------|
Db||-----------------|-----------------|-----------------|-------------5555|
Ab||-------------7777|-------------3333|-------------5555|-333333333333----| x2
Eb||-555555555555----|-111111111111----|-333333333333----|-----------------|




Pre-Chorus

Guitar 1

eb||-----------------|-----------------|
Bb||-----------------|-----------------|
Gb||-----------------|-----------------|
Db||-77xx77xx77xx77xx|-55xx55xx33xx33xx| x2
Ab||-77xx77xx77xx77xx|-55xx55xx33xx33xx|
Eb||-55xx55xx55xx55xx|-33xx33xx11xx11xx|


Guitar 2

eb||----10-----------|----10-----------|----10-----------|----10-----------|
Bb||---8--8---8------|---8--8---8------|---8--8---8------|---8--8----------|
Gb||-9------9---9-7--|-9------9---9-7--|-9------9---9-7--|-9------99997777-|
Db||-----------------|-----------------|-----------------|-----------------|
Ab||-----------------|-----------------|-----------------|-----------------|
Eb||-----------------|-----------------|-----------------|-----------------|


Bass

Gb||-----------------|-----------------|
Db||-----------------|-----------------|
Ab||-----------------|-----------------| x2
Eb||-5555555555555555|-3333333311111111|




Chorus

Guitar 1

eb||-----------------|-----------------|-----------------|-----------------|
Bb||-----------------|-----------------|-----------------|-----------------|
Gb||-5555555555555555|-----------------|-----------------|-----------------|
Db||-5555555555555555|-5555555555555555|-7777777777777777|-3333333322222222|
Ab||-3333333333333333|-5555555555555555|-7777777777777777|-3333333333333333|
Eb||-----------------|-3333333333333333|-5555555555555555|-1111111100000000|


eb||-----------------|-----------------|-----------------|-----------------|
Bb||-----------------|-----------------|-----------------|-----------------|
Gb||-5555555555555555|-7777777777777777|-----------------|-------------5---|
Db||-5555555555555555|-7777777777777777|-7777777777777777|-555555555-3-5---|
Ab||-3333333333333333|-5555555555555555|-7777777777777777|-555555555-3-3---|
Eb||-----------------|-----------------|-5555555555555555|-333333333-1-----|


Guitar 3

eb||---------------------------------|
Bb||---------------------------------|
Gb||-9-9-9--5-5-5--7-7-7-7-7-7-7-7-7-|
Db||---------------------------------| x4
Ab||-7-7-7--3-3-3--5-5-5-5-5-5-5-5-5-|
Eb||---------------------------------|



eb||---------------------------------|
Bb||---------------------------------|
Gb||-5-5-5--9-9-9--7-7-7-7-7-7-7-7-7-|
Db||---------------------------------| x4
Ab||-3-3-3--7-7-7--5-5-5-5-5-5-5-5-5-|
Eb||---------------------------------|


Bass

Gb||-----------------|-----------------|-----------------|-----------------|
Db||-----------------|-----------------|-------------2355|-----------------|
Ab||-3333333333333333|-----------------|-----------35----|-----------------|
Eb||-----------------|-3333333333333333|-5555555556------|-1111111100000000|


Gb||-----------------|-----------------|-----------------|-----------------|
Db||-----------------|-----------------|-------------2355|-----------------|
Ab||-3333333333333333|-5555555555555555|-----------35----|-------------3---|
Eb||-----------------|-----------------|-5555555556------|-333333333-1-----|



Main Theme 

Guitar 1
      
eb||-----------------|-----------------|
Bb||-----------------|-----------------|
Gb||---------55555555|-----------------|
Db||-3333333355555555|-5555555577775555|
Ab||-3333333333333333|-5555555577775555|
Eb||-11111111--------|-3333333355553333|


Guitar 3

eb||---------------------------------|
Bb||---------------------------------|
Gb||-14-14-14--10--9--5-5-5--7-7-7-7-|
Db||---------------------------------| x2
Ab||-12-12-12--8---7--3-3-3--5-5-5-5-|
Eb||---------------------------------|


Bass

Gb||-----------------|-----------------|
Db||-----------------|-----------------|
Ab||---------33333333|-----------------|
Eb||-11111111--------|-3333333355553333|




Verse 2

Guitar 1

eb||-----------------|-----------------|-----------------|-----------------|
Bb||-----------------|-----------------|-----------------|-----------------|
Gb||-----------------|-----------------|-----------------|-----------------|
Db||-7~--------------|-----------------|-----------------|-----------------|
Ab||-7~--------------|-----------------|-----------------|-------x////////-|
Eb||-5~--------------|-----------------|-----------------|-------x////////-|
                                                                 Pickslide

eb||-----------------|-----------------|-----------------|-----------------|
Bb||-----------------|-----------------|-----------------|-----------------|
Gb||-----------------|-----------------|-----------------|-----------------|
Db||-7---------------|-----------------|-----------------|-5555555555555555|
Ab||-7777777777777777|-3333333333333333|-5555555555555555|-3333333333333333|
Eb||-5555555555555555|-1111111111111111|-3333333333333333|-----------------|
PM    ...............  ................  ................  ................







Guitar 3

eb||-----------------|-----------------|-----------------|-----------------|
Bb||-----------------|-----------------|-----------------|-----------------|
Gb||-14~-------------|-----------------|-----------------|--------------12/|
Db||-----------------|-----------------|-----------------|-----------------|
Ab||-12~-------------|-----------------|-----------------|--------------10/|
Eb||-----------------|-----------------|-----------------|-----------------|


eb||-----------------|-----------------|-----------------|-----------------|
Bb||-----------------|-----------------|-----------------|-----------------|
Gb||-14~----------12-|-10~-----------5-|-7~----12~----9--|-5~--------------|
Db||-----------------|-----------------|-----------------|-----------------|
Ab||-12~----------10-|-8~------------3-|-5~----10~----7--|-3~--------------|
Eb||-----------------|-----------------|-----------------|-----------------|


Bass

Gb||-----------------|-----------------|-----------------|-----------------|
Db||-----------------|-----------------|-----------------|-------------5555|
Ab||-------------7777|-------------3333|-------------5555|-333333333333----| x2
Eb||-555555555555----|-111111111111----|-333333333333----|-----------------|




Pre-Chorus

Guitar 1

eb||-----------------|-----------------|
Bb||-----------------|-----------------|
Gb||-----------------|-----------------|
Db||-77xx77xx77xx77xx|-55xx55xx33xx33xx| x2
Ab||-77xx77xx77xx77xx|-55xx55xx33xx33xx|
Eb||-55xx55xx55xx55xx|-33xx33xx11xx11xx|


Guitar 2

eb||----10-----------|----10-----------|----10-----------|----10-----------|
Bb||---8--8---8------|---8--8---8------|---8--8---8------|---8--8----------|
Gb||-9------9---9-7--|-9------9---9-7--|-9------9---9-7--|-9------99997777-|
Db||-----------------|-----------------|-----------------|-----------------|
Ab||-----------------|-----------------|-----------------|-----------------|
Eb||-----------------|-----------------|-----------------|-----------------|


Bass

Gb||-----------------|-----------------|
Db||-----------------|-----------------|
Ab||-----------------|-----------------| x2
Eb||-5555555555555555|-3333333311111111|




Chorus

Guitar 1

eb||-----------------|-----------------|-----------------|-----------------|
Bb||-----------------|-----------------|-----------------|-----------------|
Gb||-5555555555555555|-----------------|-----------------|-----------------|
Db||-5555555555555555|-5555555555555555|-7777777777777777|-3333333322222222|
Ab||-3333333333333333|-5555555555555555|-7777777777777777|-3333333333333333|
Eb||-----------------|-3333333333333333|-5555555555555555|-1111111100000000|


Guitar 3

eb||---------------------------------|
Bb||---------------------------------|
Gb||-9-9-9--5-5-5--7-7-7-7-7-7-7-7-7-|
Db||---------------------------------| x4
Ab||-7-7-7--3-3-3--5-5-5-5-5-5-5-5-5-|
Eb||---------------------------------|


Bass

Gb||-----------------|-----------------|-----------------|-----------------|
Db||-----------------|-----------------|-------------2355|-----------------|
Ab||-3333333333333333|-----------------|-----------35----|-----------------|
Eb||-----------------|-3333333333333333|-5555555556------|-1111111100000000|




Bridge 

Guitar 1

eb||-----------------|-----------------|-----------------|-----------------|
Bb||-----------------|-----------------|-----------------|-----------------|
Gb||-----------------|-----------------|-----------------|-----------------|
Db||-8~--------------|-----------------|-----------------|---------55555555|
Ab||-8~--------------|-----------------|-8888888877777777|-5555555533333333|
Eb||-6~--------------|-----------------|-6666666655555555|-33333333--------|
PM                                       ................  ................


eb||-----------------|-----------------|-----------------|-----------------|
Bb||-----------------|-----------------|-----------------|-----------------|
Gb||-----------------|-----------------|-----------------|-----------------|
Db||-----------------|---------55555555|-----------------|-7777777755555555|
Ab||-8888888877777777|-5555555533333333|-8888888877777777|-5555555533333333|
Eb||-6666666655555555|-33333333--------|-6666666655555555|-----------------|
PM   ................  ................  ................


Guitar 3

eb||------------------------------|
Bb||------------------------------|
Gb||-10-7-7-5-5-5-9-9-9-9-9-9-9-9-|
Db||------------------------------| x7
Ab||-8--5-5-3-3-3-7-7-7-7-7-7-7-7-| 
Eb||------------------------------|

eb||------------------------------------|
Bb||------------------------------------|
Gb||-10-7-7-5-5-5-9-9-10-10-12-12-14-14~|
Db||------------------------------------| 
Ab||-8--5-5-3-3-3-7-7-8--8--10-10-12-12~| 
Eb||------------------------------------|


Bass

Gb||-----------------|-----------------|-----------------|-----------------|
Db||-----------------|-----------------|-----------------|-----------------|
Ab||-----------------|---------33333333|-----------------|---------33333333|
Eb||-6666666655555555|-33333333--------|-6666666655555555|-33333333--------|


Gb||-----------------|-----------------|-----------------|-----------------|
Db||-----------------|-----------------|-----------------|-----------------|
Ab||-----------------|---------33333333|-----------------|-5555555533333333|
Eb||-6666666655555555|-33333333--------|-6666666655555555|-----------------|




Verse 3

Guitar 2

eb||-----0-------0---|-----0-------0---|-----0-------0---|-----0-------0---|
Bb||---3---3---3---3-|---3---3---3---3-|---3---3---3---3-|---3---3---3---3-|
Gb||-2-------2-------|-----------------|-5-------5-------|-0-------0-------|
Db||-----------------|-3-------3-------|-----------------|-----------------|
Ab||-----------------|-----------------|-----------------|-----------------|
Eb||-----------------|-----------------|-----------------|-----------------|





Pre-Chorus

Guitar 2

eb||----10-----------|----10-----------|----10-----------|----10-----------|
Bb||---8--8---8------|---8--8---8------|---8--8---8------|---8--8----------|
Gb||-9------9---9-7~-|-9------9---9-7--|-9------9---9-7--|-9------99997777-|
Db||-----------------|-----------------|-----------------|-----------------|
Ab||-----------------|-----------------|-----------------|-----------------|
Eb||-----------------|-----------------|-----------------|-----------------|


Guitar 4

eb||-----0-------0---|-----0---0~------|
Bb||---3---3---3---3-|---3---3-3~------|
Gb||-2-------2-------|-0---------------|
Db||-----------------|---------3~------| x2
Ab||-----------------|-----------------|
Eb||-----------------|-----------------|


Bass

Gb||-----------------|-----------------|-----------------|-----------------|
Db||-----------------|-----------------|-----------------|-----------------|
Ab||-----------------|-----------------|-----------------|-----------------|
Eb||-5~--------------|-3~------1~------|-5~--------------|-3~------11111111|




Last Chorus

Guitar 1

eb||-----------------|-----------------|-----------------|-----------------|
Bb||-----------------|-----------------|-----------------|-----------------|
Gb||-5555555555555555|-----------------|-----------------|-----------------|
Db||-5555555555555555|-5555555555555555|-7777777777777777|-3333333322222222|
Ab||-3333333333333333|-5555555555555555|-7777777777777777|-3333333333333333|
Eb||-----------------|-3333333333333333|-5555555555555555|-1111111100000000|


eb||-----------------|-----------------|-----------------|-----------------|
Bb||-----------------|-----------------|-----------------|-----------------|
Gb||-5555555555555555|-7777777777777777|-----------------|-------------5---|
Db||-5555555555555555|-7777777777777777|-7777777777777777|-555555555-3-5---|
Ab||-3333333333333333|-5555555555555555|-7777777777777777|-555555555-3-3---|
Eb||-----------------|-----------------|-5555555555555555|-333333333-1-----|


Guitar 3

eb||---------------------------------|
Bb||---------------------------------|
Gb||-9-9-9--5-5-5--7-7-7-7-7-7-5-5-5-|
Db||---------------------------------|
Ab||-7-7-7--3-3-3--5-5-5-5-5-5-3-3-3-|
Eb||---------------------------------|


eb||------------------------------------|
Bb||------------------------------------|
Gb||-9-9-9--5-5-5--7-7-7-7-7-7-12-12-12-|
Db||------------------------------------|
Ab||-7-7-7--3-3-3--5-5-5-5-5-5-10-10-10-|
Eb||------------------------------------|


eb||------------------------------------|
Bb||------------------------------------|
Gb||-9-9-9--5-5-5--7-7-7-7-7-7-14-14-14-|
Db||------------------------------------|
Ab||-7-7-7--3-3-3--5-5-5-5-5-5-12-12-12-|
Eb||------------------------------------|





eb||---------------------------------|
Bb||---------------------------------|
Gb||-9-9-9--5-5-5--7-7-7-7-7-7-7-7-7-|
Db||---------------------------------|
Ab||-7-7-7--3-3-3--5-5-5-5-5-5-5-5-5-|
Eb||---------------------------------|


eb||---------------------------------|
Bb||---------------------------------|
Gb||-5-5-5--9-9-9--7-7-7-7-7-7-5-5-5-|
Db||---------------------------------| 
Ab||-3-3-3--7-7-7--5-5-5-5-5-5-3-3-3-|
Eb||---------------------------------|


eb||---------------------------------|
Bb||---------------------------------|
Gb||-5-5-5--9-9-9--7-7-7-7-7-7-7-7-7-|
Db||---------------------------------| 
Ab||-3-3-3--7-7-7--5-5-5-5-5-5-5-5-5-|
Eb||---------------------------------|


eb||------------------------------------|
Bb||------------------------------------|
Gb||-5-5-5--9-9-9--7-7-7-7-7-7-14-14-14-|
Db||------------------------------------| 
Ab||-3-3-3--7-7-7--5-5-5-5-5-5-12-12-12-|
Eb||------------------------------------|


eb||----------------------------------|
Bb||----------------------------------|
Gb||-5-5-5--9-9-9--7-7-7-7-7-7-7-10-5-|
Db||----------------------------------| 
Ab||-3-3-3--7-7-7--5-5-5-5-5-5-5-8--3-|
Eb||----------------------------------|



Bass

Gb||-----------------|-----------------|-----------------|-----------------|
Db||-----------------|-----------------|-------------2355|-----------------|
Ab||-3333333333333333|-----------------|-----------35----|-----------------|
Eb||-----------------|-3333333333333333|-5555555556------|-1111111100000000|


Gb||-----------------|-----------------|-----------------|-----------------|
Db||-----------------|-----------------|-------------2355|-----------------|
Ab||-3333333333333333|-5555555555555555|-----------35----|-------------3---|
Eb||-----------------|-----------------|-5555555556------|-333333333-1-----|




Main Theme

Guitar 1
      
eb||-----------------|-----------------|-----------------|-----------------|
Bb||-----------------|-----------------|-----------------|-----------------|
Gb||---------55555555|-----------------|---------55555555|-----------------|
Db||-3333333355555555|-5555555577777777|-3333333355555555|-55555555777~---3|
Ab||-3333333333333333|-5555555577777777|-3333333333333333|-55555555777~---5|
Eb||-11111111--------|-3333333355555555|-11111111--------|-33333333555~---3|


Guitar 3

eb||---------------------------------|
Bb||---------------------------------|
Gb||-14-14-14--10--9--5-5-5--7-7-7-7-|
Db||---------------------------------| x3
Ab||-12-12-12--8---7--3-3-3--5-5-5-5-|
Eb||---------------------------------|





eb||----------------------------------------|
Bb||----------------------------------------|
Gb||-14-14-14--10--9--5-5-5--7-7-7-14~---10-|
Db||----------------------------------------| 
Ab||-12-12-12--8---7--3-3-3--5-5-5-12~---8--|
Eb||----------------------------------------|


Bass

Gb||-----------------|-----------------|-----------------|-----------------|
Db||-----------------|-----------------|-----------------|-----------------|
Ab||---------33333333|-----------------|---------33333333|-----------------|
Eb||-11111111--------|-3333333355555555|-11111111--------|-33333333555~---1|


Guitar Key

. = Palm mute
~ = Let note ring
x = Dead note
h = Hammer on
p = Pull off


Drum Key

 S = Snare
HH = Hi hat
 B = Bass drum

x = Strike
o = Open strike on hi hat

            
            
Suggest correction
Creating personal tab
Creating personal tab
You can edit any tab online and save it as your Personal.

You can edit, replace or remove any tab part or add personal notes – all changes will be seen only by you.

Personal tabs can be accessed anytime from any device, even offline.
Learn more »
Give kudos to tab author, rate the tab!
1 2 3 4 5
comments
print report bad tab
guest
You may want to rate the tab now too:
select rating
Wanna post a correction for this tab? Suggest correction