Oops, an error
Loading. Please wait.

Lovelikefire - From A Tower bass

94 views 1 this week
no commentswrite comment
1 2 3 4 5
3 more votes to show rating
add to favorites
×
Save as Personal and add changes to this tab that will be seen only by you. Learn more ›
×
You can save this tab as Personal to edit and correct it or add notes. All changes will be seen only by you. Learn more »
launch autoscroll
font size
0
reset
guitar tuner
edit
Autoscroll
slow
fast
+/-
esc
set tempo
stop
Author
Difficulty
SONG:   From a Tower
BAND:   LoveLikeFire
ALBUM:  An Ocean in the Air
YEAR:   2007
TRACK:  2
TUNING: GDAE


(0:11)
G|----------------------------|
D|----------------------------|
A|----------------------------|
E|----5>----9>----5>----9>----|


(0:21)
G|----------------------------------------------------------|
D|----------------------------------------------------------|
A|----------------------------------------------------------|
E|----5>----9>----5>----9>----5>----5>----9>----5>----9>----|
  Close your eyes                   Take your time
  Rest well tonight                 I have lots of time
  You can try your luck tomorrow    Coming my way


(0:43)
G|-----------------------------------------------------------------|
D|-----------------------------------------------------------------|
A|----------------7>--------------------------9>----7>----5~~~~----|
E|----7>----2>--------------------------7>-------------------------|
  I will be drinking from a fire        I hold a flag from a mountain
  I catch a wave from a tower           I'll make a sign I'm alive
                                        I know it will be all right


(1:01)
G|----------------------------------------------------------------------|
D|----------------------------------------------------------------------|
A|----------------------------------------------------------------------|
E|----5>----9>----5>----9>----5>----9>----5>----5>----9>----5>----9>----|
                  Make believe the              Take my life
                   world is listening           I have many lives
                  Pretend there's a feeling     Coming my way
                   that you will miss


(1:28)
G|-----------------------------------------------------------------|
D|-----------------------------------------------------------------|
A|----------------7>--------------------------9>----7>----5~~~~----|
E|----7>----2>--------------------------7>-------------------------|
  I will be drinking from a fire        I hold a flag from a mountain
  I catch a wave from a tower           I'll make a sign I'm alive
                                        I know it will be all right


(1:45)
G|--------------------------------------------------------|
D|--------------------------------------------------------|
A|----9>--------------------------------------------------|
E|----------5>----7>----2>--------5>----7>----7>----9>----|
  Oooh...


(2:02)
G|----------------------------|
D|----------------------------|
A|----------------------------|
E|----5>----9>----5>----9>----|


(2:12)
G|----------------------------------------------------------|
D|----------------------------------------------------------|
A|----------------------------------------------------------|
E|----5>----9>----5>----9>----5>----5>----9>----5>----9>----|
      Follow me to somewhere        Hold your breath
       you can be                   It will come easily
      Do you know the message       Dancing your way
       that you're searching?


(2:36)
G|--------------------------------------------------------|
D|--------------------------------------------------------|
A|----------------7>--------------------------9>----7>----|
E|----7>----2>--------------------------7>----------------|
  We could be drinking from a fire      We hold a flag from a mountain
  We catch a wave from a tower          Where it can burn much brighter


(2:49)
G|-----------------------------------------------------------------|
D|-----------------------------------------------------------------|
A|----------------7>--------------------------9>----7>----5~~~~----|
E|----7>----2>--------------------------7>-------------------------|
  Oh, take me out to the outside        I'll hold a flag from a mountain
  Oh, pull me in from the water         I'll make a sign I'm alive
                                        I know it will be all right


(3:06)
G|------------------------------------------------------------------------------|
D|------------------------------------------------------------------------------|
A|----9>------------------------------------------------------------------------|
E|----------5>----7>----2>--------5>----7>----2>--------5>----7>----7>----9>----|
  Oooh...


(3:29)
G|---------|
D|---------|
A|---------|
E|----5----|


  I'm a light, from a tower
  Coming down, from a tower
  I'm a light, from a tower
  Coming down, from a tower


(3:48) - You can throw an open E in as you transition from F# to A for more flavor
G|----------------------------------------------------------------|
D|----------------------------------------------------------------|
A|----------------------------------------------------------------|
E|----2>----5>--------2>----5>--------2>----5>--------2>----5>----|
      I'm a light,    Coming down     I'm a light     Coming down
      from a tower    from a tower    from a tower    I'm coming down


(4:01)
G|-------------------------------------------------------------------|
D|----4>--------------4>--------------4>--------------4>-------------|
A|-------------------------------------------------------------------|
E|----------5>--------------5>--------------5>--------------5~~~~----|
  I'm coming down  I'm coming down  I'm coming down  I'm coming down
  I'm coming down  I'm coming down  I'm coming down  I'm coming down

            
            
Suggest correction
Creating personal tab
Creating personal tab
You can edit any tab online and save it as your Personal.

You can edit, replace or remove any tab part or add personal notes – all changes will be seen only by you.

Personal tabs can be accessed anytime from any device, even offline.
Learn more »
Give kudos to tab author, rate the tab!
1 2 3 4 5
comments
print report bad tab
guest
You may want to rate the tab now too:
select rating
Wanna post a correction for this tab? Suggest correction