Oops, an error
Loading. Please wait.

Marco Dos Santos - Not On The Gest List bass

3,888 views 1 this week
no commentswrite comment
1 2 3 4 5
3 more votes to show rating
add to favorites
×
Save as Personal and add changes to this tab that will be seen only by you. Learn more ›
×
You can save this tab as Personal to edit and correct it or add notes. All changes will be seen only by you. Learn more »
launch autoscroll
font size
0
reset
guitar tuner
edit
Autoscroll
slow
fast
+/-
esc
set tempo
stop
Author
Difficulty
-------------------------------------------------------------------------------
			     Not On the guest list - Marco Dos Santos
-------------------------------------------------------------------------------

Tabbed By : rocko872 (José Rodrigo Moreno Elizondo)
e-mail: rocko_872@hotmail.com

Tuning: G D A E

Main riff:
G|---------------------------------------------------------------------------|
D|-------------------------------------------------------------------10-10-11|
A|-----------12--12-11-10-10--10-----------------12--12-11-10-10--10---------|
E|-10-10--10---------------------8-8-9-10-10--10-----------------------------|

Break 1:
G|---------------------------------------------------------------------------|
D|---------------------------------------------------------------------------|
A|---------------------------------------------------------------------------|
E|-10-10-10-10--10-10-10-10--10-10-10-10--10-10-10-10--8-10-10-10-10---------|

G|-------------|
D|-------------|
A|-------------|
E|-10-10-10-10-|

Break 2:
G|---------------------------------------------------------------------------|
D|---------------------------------------------------------------------------|
A|-5-5-5-5--5-5-5-5--5-5-5-5--5-5-5-5--5-5-5-5--5-5-5-5--5-5-5-5--5-5-5-5----|
E|---------------------------------------------------------------------------|

Ending:
G|---------------------------------------------------------------------------|
D|---------------------------------------------------------------------------|
A|-5-5-5-5--5-5-5-5--5-5-5-5--5-5-5-5--5-5-5-5--5-5-5-5--5-5-5-5--5-5-5-5----|
E|---------------------------------------------------------------------------|

Just repeat Main riff during the whole song. but figure out when to introduce the 
riffs.
I couldn't find the site of this guy, but the prove that it exists is that his music is 
sold on those sites:

http://www.discogs.com/artist/Marco+Dos+Santos

http://www.dancerecords.com/artists/Marco+Dos+Santos

http://es.juno.co.uk/products/187836-01.htm
| /  slide up
| \  slide down
| h  hammer-on
| p  pull-off
| ~  vibrato
| +  harmonic
| x  Mute note
===============================================================================

            
            
Suggest correction
Creating personal tab
Creating personal tab
You can edit any tab online and save it as your Personal.

You can edit, replace or remove any tab part or add personal notes – all changes will be seen only by you.

Personal tabs can be accessed anytime from any device, even offline.
Learn more »
Give kudos to tab author, rate the tab!
1 2 3 4 5
comments
print report bad tab
guest
You may want to rate the tab now too:
select rating
Wanna post a correction for this tab? Suggest correction