Oops, an error
Loading. Please wait.

Mars Argo - Machine tab

5,442 views 36 this week
1 commentread comment
1 2 3 4 5
x 4
add to favorites
×
Save as Personal and add changes to this tab that will be seen only by you. Learn more ›
×
You can save this tab as Personal to edit and correct it or add notes. All changes will be seen only by you. Learn more »
launch autoscroll
font size
0
reset
how to read this tab
guitar tuner
edit
Autoscroll
slow
fast
+/-
esc
set tempo
stop
================================================================
                      MACHINE by MARS ARGO
                    Technology is a Dead Bird
================================================================
                      Tabbed by Tree Eater


INTRO
----------------

    4/4
e||-----------------|-----------------|-----------------||
B||-----------------|-----------------|---2---2---2---2-||
G||---1---1---1---1-|---1---1---1---1-|---3---3---3---3-||
D||---3---3---3---3-|---3---3---3---3-|-----3-------3---||
A||-4---4---4---4---|-4---4---0---0---|-1-------1-------||
E||-----------------|-----------------|-----------------||
    C#                        Fm/A      A#m


VERSES
----------------

    4/4
e||-----------------|-----------------|-----------------|
B||---7---7---7---7-|-----------------|---6---6---6---6-|
G||---8---8---8---8-|---5---5---5---5-|---4---4---4---4-|
D||-----8-------8---|---6---6---6---6-|-----6-------6---|
A||-6-------6-------|-----6-------6---|-4-------5-------|
E||-----------------|-4-------4-------|-----------------|
    D#m               G#                C#7     Ddim7

    4/4                                 2/4
e||-----------------|-----------------|---------|
B||---7---7---7---7-|---3---3---3---3-|---7---7-|
G||---8---8---8---8-|---1---1---1---1-|---8---8-|
D||-----8-------8---|-----3-------3---|-----8---|
A||-6-------6-------|-1-------1-------|-6-------|
E||-----------------|-----------------|---------|
    D#m               A#7               D#m

    4/4
e||-----------------|-----------------|-----------------|-----------------||
B||---4---4---4---4-|---3---3---3---3-|---2---2---2---2-|---3---3---3---3-||
G||---2---2---2---2-|---4---3---3---3-|---3---3---3---3-|---1---1---1---1-||
D||-----4-------4---|-----4-------4---|-----3-------3---|-----3-------3---||
A||-2-------2-------|-2-------2-------|-1-------1-------|-1-------1-------||
E||-----------------|-----------------|-----------------|-----------------||
    B7                Bm                A#m               A#7


CHORUS/ENDING
----------------

    4/4
e||-----------------|-----------------|-----------------|
B||---2---2---6---6-|---7---7---7---7-|---2---2---6---6-|
G||---3---3---7---7-|---8---8---8---8-|---3---3---7---7-|
D||-----------------|-----8-------8---|-----------------|
A||-----4-------8---|-6-------6-------|-----4-------8---|
E||-2-------6-------|-----------------|-2-------6-------|
    F#      A#        D#m               F#      A#

    4/4
e||-----------------|-----------------||
B||---7---7---7---7-|---10--10--10--10||
G||---8---8---8---8-|---8---8---8---8-||
D||-----------------|-----------------||
A||-----9-------9---|-----9-------9---||
E||-7-------7-------|-7-------7-------||
    B                 B7


LYRICS
----------------

Intro:  C#  Fm/A

A#m             D#m
Why can't I see you?
                 G#                C#7      Ddim7  D#m
You took me to a place that wasn't safe for me and you
                        A#7    D#m
We saw the Milky Way at night
           B7           Bm  A#m
You put up a fight with me
                   A#7
Now we're leaving

D#m                         G#
What happened to the Monday nights?
         C#7   Ddim7    D#m
We would fall asleep at three
                             A#7   D#m
I think that we could be the same
            B7
I think I'm insane
   Bm               A#m
My brain is telling me
               A#7
I'm a machine

F#  A#  D#m
Machine...
F#  A#  B  B7
Machine...

   D#m                           G#
My friend's got a forty with his fifty on
         C#7           Ddim7     D#m
Said the world's gonna end but I think he's wrong
    A#7                 D#m      B7     Bm      A#m
You know it's true; the things I do for you and me
                   A#7
Now we're leaving

F#  A#  D#m
Machine...
F#  A#  B  B7
Machine...

F#  A#  D#m
Machine...
F#  A#  B  B7
Machine...

F#  A#  D#m
Machine...
F#  A#  B  B7
Machine...

F#  A#  D#m
Machine...
F#  A#  B  B7
Machine...

(Hang on last B7 4 more measures, then end with F#)

            
            
Suggest correction
Creating personal tab
Creating personal tab
You can edit any tab online and save it as your Personal.

You can edit, replace or remove any tab part or add personal notes – all changes will be seen only by you.

Personal tabs can be accessed anytime from any device, even offline.
Learn more »
comments
print report bad tab
1 comment total.
-2 reply
xjackieRAWR 30 Sep 07, 2010 07:30 PM

The first A#m should be a Bbm

guest
You may want to rate the tab now too:
select rating
Wanna post a correction for this tab? Suggest correction