Oops, an error
Loading. Please wait.

Murphys Kids - The Anti-Corporate Beach Party bass

196 views 1 this week
1 commentread comment
1 2 3 4 5
2 more votes to show rating
add to favorites
×
Save as Personal and add changes to this tab that will be seen only by you. Learn more ›
×
You can save this tab as Personal to edit and correct it or add notes. All changes will be seen only by you. Learn more »
launch autoscroll
font size
0
reset
guitar tuner
edit
Autoscroll
slow
fast
+/-
esc
set tempo
stop
Author
Difficulty
-------------------------------------------------------------------------------
	          Murphy's Kids - The Anti-corporate Beach Party
-------------------------------------------------------------------------------

Tabbed By : emr_steelmech

PM me with questions/comments/suggestions

NOTE:  I tabbed this bass part on a guitar, which made it a pain to do all by ear, so 
if its 100% but its close enough to get you started.  You can figure out the order of the 
for yourself.  Cheers and good luck.

Check out the band here: http://www.myspace.com/mkrva

Tuning: standard

Intro:
G|--------7------------------------------------------------------------|
D|----7-9-----9p7---7-7h9----------------------------7-9---------------|  x3
A|--9-------------9-------8-7-5---7br--5-7-5-------5-------------------|
E|-------------------------------------------7-5-7---------------------|

G|--------7------------------------------------------------------------------|
D|----7-9-----9p7---7-7h9----------------------------------------------------|
A|--9-------------9-------8-7-5---7br--5-7-5-----2--2--0-2-0-2--2-2----------|
E|-------------------------------------------7-5-----------------------------|

G|---------------------------------------------------------------------------|
D|----------------4p2p0------------------------------------------------------|
A|--0-2-0-2--2-2--------2----------------------------------------------------|
E|---------------------------------------------------------------------------|

Verse: (NOTE: 2nd sax solo is similar, but not exactly like this)
G|---------------------------------------------------------------------------|
D|----------7--------------------------7--------------------------7----------|
A|--------9---9----------------------9---9----------------------9---9--------|
E|--7--7--------5----5----2-5--7--7--------5----5----2-5--7--7--------5----5-|

G|---------------------------------------------------------------------------|
D|---------------------------------------------------------------------------|
A|---------------------------------------------------------------------------|
E|---2-5--10---10---10---10---12-12-12-12-12-12-12-12------------------------|

G|---------------------------------------------------------------------------|
D|----------7--------------------------7--------------------------7----------|
A|--------9---9----------------------9---9----------------------9---9--------|
E|--7--7--------5----5----2-5--7--7--------5----5----2-5--7--7--------5----5-|

G|---------------------------------------------------------------------------|
D|---------------------------------------------------------------------------|
A|---------------------------------------------------------------------------|
E|---2-5--10---10---10---10---10-10-10---10---10---5---5---5---5---5-5-5---5-|

G|---------------------------------------------------------------------------|
D|---------------------------------------------------------------------------|
A|---------------------------------------------------------------------------|
E|--5--0-0-0-0-0-0-0-0-0-0-0-0-0-0-0-0---------------------------------------|

1st sax solo:
G|---------------------------------------------------------------------------|
D|---------------------------------------------------------------------------|
A|-----------------------------5---5-------------------5---5-5-6-6-7-7---7---|
E|-7-7-5-7---7-5-7---7-5-7---7---7---7-5-7---7-5-7---7---7-------------------|

G|---------------------------------------------------------------------------|
D|---------------------------------------------------------------------------|
A|-7---7---7---7---7-6---5-5---5---5---5---5-7-5-7-5-------------------------|
E|---------------------------------------------------7-5---------------------|

G|---------------------------------------------------------------------------|
D|---------------------------------------------------------------------------|
A|-----------------------------5---5-------------------5---5-5-6-6-7-7---7---|
E|-7-7-5-7---7-5-7---7-5-7---7---7---7-5-7---7-5-7---7---7-------------------|

G|---------------------------------------------------------------------------|
D|---------------------------------------------------------------------------|
A|-7---7---7---7---7-6---5-5---5---5---5---5---------------------------------|
E|---------------------------------------------------------------------------|

Chorus:
G|---------------------------------------------------------------------------|
D|---------------------4-4-2-0-----------------------------------------------|
A|--2--2--0-2-0-2--2-2---------0--0--0-0-0-----------------0--0--0-0-0-------|
E|-----------------------------------------0--0-0--0-0-0-0-------------------|

G|---------------------------------------------------------------------------|
D|------------------------------------2h4p2p0--------------------------------|
A|-----------------2--2--0-2-0-2--2-2----------------------------------------|
E|-0--0-0--0-0-0-0-----------------------------------------------------------|

G|---------------------------------------------------------------------------|
D|---------------------4-4-2-0-----------------------------------------------|
A|--2--2--0-2-0-2--2-2---------0--0--0-0-0-----------------0--0--0-0-0-------|
E|-----------------------------------------0--0-0--0-0-0-0-------------------|

G|---------------------------------------------------------------------------|
D|---------------------------------------------------4p2p0-------------------|
A|-----------------2--2--0-2-0-2--2-2--0-2-0-2--2-2--------2-----------------|
E|-0--0-0--0-0-0-0-----------------------------------------------------------|
G|---------------------------------------------------------------------------|
D|---------------------------------------------------------------------------|
A|---------------------------------------------------------------------------|
E|---------------------------------------------------------------------------|

Bridge (3:15):
G|---------------------------------------------------------------------------|
D|---------------------------------------------------------------------------|
A|---------------------------------------------------------------------------|
E|--5--5--5----5-5-5-5-5-5--0--0--0----7--7--7--7--7--7--7--7--7--7--7--7--7-|

G|---------------------------------------------------------------------------|
D|---------------------------------------------------------------------------|
A|---------------------------------------------------------------------------|
E|-7--7--7--7---------------7--7--5--7--------7--7--5--10--10--10--10--------|

G|---------------------------------------------------------------------------|
D|---------------------------------------------------------------------------|
A|---------------------------------------------------------------------------|
E|-10109-9-91010109-9--7--7--5--7--------7--7--5--10-10--10-10-10--10-9-9----|

G|---------------------------------------------------------------------------|
D|---------------------------------------------------------------------------|
A|---------------------------------------------------------------------------|
E|-9-9-9--9-10-10--10-10-10--10-10-10--10-10-10----5----0--------------------|

|
| /  slide up
| \  slide down
| h  hammer-on
| p  pull-off
| ~  vibrato
| +  harmonic
| x  Mute note
===============================================================================

            
            
Suggest correction
Creating personal tab
Creating personal tab
You can edit any tab online and save it as your Personal.

You can edit, replace or remove any tab part or add personal notes – all changes will be seen only by you.

Personal tabs can be accessed anytime from any device, even offline.
Learn more »
Give kudos to tab author, rate the tab!
1 2 3 4 5
comments
print report bad tab
1 comment total.
0 reply
chipman5544 20 Mar 14, 2008 05:41 PM

this tab kept me in a band, anyway,the only thing that may need correcting is on the intro, the last part where you go up on 7 and five on the E try going to second and open A and so forth, sounds more right on, otherwise this is perfect, thanks again

guest
You may want to rate the tab now too:
select rating
Wanna post a correction for this tab? Suggest correction