Oops, an error
Loading. Please wait.

My Drug Hell - Girl At The Bus Stop tab

855 views 1 this week
2 commentsread comments
1 2 3 4 5
2 more votes to show rating
add to favorites
×
Save as Personal and add changes to this tab that will be seen only by you. Learn more ›
×
You can save this tab as Personal to edit and correct it or add notes. All changes will be seen only by you. Learn more »
launch autoscroll
font size
0
reset
how to read this tab
guitar tuner
edit
Autoscroll
slow
fast
+/-
esc
set tempo
stop
------------------------------------------------------------------------------
                     GIRL AT THE BUS STOP - My Drug Hell
-------------------------------------------------------------------------------
Tabbed by: Chapman Li (aka SonicYouthRules)
Email: chapman_li@hotmail.com

Link to bandpage 
(http://profile.myspace.com/index.cfm?fuseaction=user.viewprofile&friendID=38228026)


What an absolutely stunning song this is, so simple and yet such a memorable
melody and annoyingly addictive!



Tuning: Standard


B - E - F# - E


VERSE 1

B          E         F#      E
Girl at the bus stop, talking French

To a girlfriend, on the bench

I had my head, in a book

I lost my place, when I took a look



B        E          F#        E                
Girl at the bus stop, I wished for once

That the bus, would never come

She sat downstairs, I sat behind

I couldn't get her, off my mind


B         E         F#         E
Girl at the bus stop, I could not believe

When she got off, same stop as me

I'd not forgive, myself if I

Let this chance, just pass by


B      E       F#       E
By, by, thought I would die

my, my, but-ter-fly



[SOLO]

    trill  1/4bend  trill  1/4b     tr
e|--11-12--14-------11-12--14----------------------------------------------|
B|----^---------------^-----------11-12------------------------------------|
G|----------------------------------^---13-11~---9-9-9-8---8---------------|
D|-------------------------------------------------------11--9-------------|
A|-------------------------------------------------------------------------|
E|-------------------------------------------------------------------------|

e|-------------------------------------------------------------------------|
B|-------------------------------------------------------------------------|
G|--------------------------------------------8----------------------------|
D|--9-9-8h9-4~--8h9-8h9-2--8h9-4~-----4-4-2-1--9---------------------------|
A|-------------------------------------------------------------------------|
E|-------------------------------------------------------------------------|


VERSE 2

B        E          F#        E
Girl at the bus stop, I asked if she

Would maybe like to, come out with me

I noticed it had, began to snow

Her smile was sweet, when she said no


No, no, oh-no

No, no, oh-no


B           E        F#      E
Girl at the bus stop, I thought of you

I wondered if you, wondered too

And perhaps you'll give it a miss

I think that it'd, be so last minute (?)



| /  slide up
| \  slide down
| h  hammer-on
| p  pull-off
| ~  vibrato
| +  harmonic
| x  Mute note
===============================================================================

            
            
Suggest correction
Creating personal tab
Creating personal tab
You can edit any tab online and save it as your Personal.

You can edit, replace or remove any tab part or add personal notes – all changes will be seen only by you.

Personal tabs can be accessed anytime from any device, even offline.
Learn more »
Give kudos to tab author, rate the tab!
1 2 3 4 5
comments
print report bad tab
2 comments total.
0 reply
tyler_j 1,519 Oct 11, 2008 11:15 PM

***** Great tab...couple of the lyrics are off but that doesn't amtter...great job!

0 reply
tyler_j 1,519 Oct 11, 2008 11:31 PM

playing around with the solo and I thought this sounded a bit better...if this doesn't show up correctly I'll email it to you..

e|--11h12--14---11h12--14-------------------------------------------------|
B|----------------------------11h12—-12—-10--8-8-10--11-------------------|
G|-----------------------------------13—-11--9-9-11--12----9-9-9-9--8-----|
D|--------------------------------------------------------------------9---|
A|------------------------------------------------------------------------|
E|------------------------------------------------------------------------|

e|------------------------------------------------------------------------|
B|------------------------------------------------------------------------|
G|----------------------------------------------------7-------------------|
D|---9-8h9-----8h9-8h9----8h9---------------------------9-----------------|
A|---------9-----------7------9---------------9-9-7-6---------------------|
E|------------------------------------------------------------------------|

guest
You may want to rate the tab now too:
select rating
Wanna post a correction for this tab? Suggest correction