Oops, an error
Loading. Please wait.

Nigh - Tabula Rasa tab

13 views 1 this week
no commentswrite comment
1 2 3 4 5
3 more votes to show rating
add to favorites
×
Save as Personal and add changes to this tab that will be seen only by you. Learn more ›
×
You can save this tab as Personal to edit and correct it or add notes. All changes will be seen only by you. Learn more »
launch autoscroll
font size
0
reset
how to read this tab
guitar tuner
edit
Autoscroll
slow
fast
+/-
esc
set tempo
stop
Intro - Clean Guitar (2x)

D|-----0---------------0---------------0---------------0---------------0-----0-----------------------|
A|-5/6---6-5-------5/6---6-5-------5/6---6-5-------5/6---6-5---------0-----0-------0-----------------|
F|-----------------------------------------------------------------5-----3-------2---2---------------|
C|-------------0---------------0---------------0---------------0---------------3-------3--2(b)-------|
G|---------------------------------------------------------------------------------------------------|
A|---------------------------------------------------------------------------------------------------|

D|-----------------------------------------------------------------7------7---------0----------------|
A|-----0-------------------0-------------------0-----------------0---0------------0---0----0---------|
F|---2---2---------------2---2---------------2---2-------------5-------5----5---3-------3----3-------|
C|-3-------3--2(b)-----3-------3--2(b)-----3-------3--2(b)-------------------------------------------|
G|---------------------------------------------------------------------------------------------------|
A|---------------------------------------------------------------------------------------------------|

Intro - Clean Guitar (3rd/Final Time)

D|-----0---------------0---------------0---------------0---------------0-----0-----------------------|
A|-5/6---6-5-------5/6---6-5-------5/6---6-5-------5/6---6-5---------0-----0-------0-----------------|
F|-----------------------------------------------------------------5-----3-------2---2---------------|
C|-------------0---------------0---------------0---------------0---------------3-------3--2(b)-------|
G|---------------------------------------------------------------------------------------------------|
A|---------------------------------------------------------------------------------------------------|

D|---------------------------------------------------------------|
A|-----0-------------------0-------------------0-----------------|
F|---2---2---------------2---2---------------2---2---------------|
C|-3-------3--2(b)-----3-------3--2(b)-----3-------3--2(b)-------|
G|---------------------------------------------------------------|
A|---------------------------------------------------------------|

Transition - Clean Guitar

D|----------------------------------------------------------------------------|
A|-----------------10---------------------------------------------------------|
F|------------9-10----10-9-7--------------------------------------------------|
C|-----7-9-10----------------8-7-5--------------------------------------------|
G|-7-8-----------------------------6-5-3-2-0-2(b)---3-2-0-2(b)---5-3-2-0-2(b)-|
A|----------------------------------------------------------------------------|

Riff 1 - Fuzz (Open)(3x)

D|----------------------------------------|
A|----------------------------------------|
F|----------------------------------------|
C|-4---4(b)---5-4---4(b)---7-5-4---4(b)---|
G|-2-0-2(b)---3-2-0-2(b)---5-3-2-0-2(b)---|
A|----------------------------------------|

Riff 1 Transition - Fuzz (Open)(4th/Final Time)

D|--------------------------------------|
A|--------------------------------------|
F|--------------------------------------|
C|-4---4(b)---5-4-2-4-5-7-5-4-5-4-7-5---|
G|-2-0-2(b)---3-2-0-2-3-5-3-2-3-2-5-3---|
A|--------------------------------------|

Riff 2 - Fuzz (2x Open, 2x Muted, 2x Open)

D|-------------------------------------------------------------------|
A|-------------------------------------------------------------------|
F|-------------------------------------------------------------------|
C|-4/5\4---4(b)-----4(b)-----4(b)---7\5\4---4(b)-----4(b)-----4(b)---|
G|-2/3\2-0-2(b)---0-2(b)---0-2(b)---5\3\2-0-2(b)---0-2(b)---0-2(b)---|
A|-------------------------------------------------------------------|

D|----------------------------------------------------------|
A|----------------------------------------------------------|
F|----------------------------------------------------------|
C|-9\7\5---5(b)-----5(b)-----5(b)--11\9\7---7-----5-----4---|
G|-7\5\3-0-3(b)---0-3(b)---0-3(b)---9\7\5-0-5---0-3---0-2---|
A|----------------------------------------------------------|

Riff 1 - Fuzz (Open)(3x)

D|----------------------------------------|
A|----------------------------------------|
F|----------------------------------------|
C|-4---4(b)---5-4---4(b)---7-5-4---4(b)---|
G|-2-0-2(b)---3-2-0-2(b)---5-3-2-0-2(b)---|
A|----------------------------------------|

Transition - Fuzz (Open)

D|------------------------------------------------------------|
A|------------------------------------------------------------|
F|------------------------------------4-----------------------|
C|-4---4(b)---5-4---4-----4\3---3-----2-3---3-----4\3---3-----|
G|-2-0-2(b)---3-2-0-2---0-2\1-0-1---0---1-0-1---0-2\1-0-1---0-|
A|------------------------------------------------------------|

D|-------------------------------------------------------|
A|-------------------------------------------------------|
F|-4-----4-5---4-----4-3---4-----4-5---4-----4-3---4-----|
C|-2-3---2-3---2-3---2-1---2-3---2-3---2-3---2-1---3-----|
G|---1-----------1-----------1-----------1---------2-----|
A|-------------------------------------------------0-----|

Riff 3A - Fuzz (Muted)(1st, 4th, 7th Time)

D|---------------------------------------------------------------------------------------|
A|---------------------------------------------------------------------------------------|
F|---------------------------------------------------------------------------------------|
C|---------------------------------------------------------------------------------------|
G|-------3---------------------3--------------------3----------------------3-------------|
A|-0---2-----5-3---0-----0---2-----5-3---0-----0---2-----5-3---0-----0h2p0-----5-3---0---|

3B - Fuzz (Open)(2nd, 5th, 8th Time)

D|---------------------------------------------------------------------------------------|
A|---------------------------------------------------------------------------------------|
F|---------------------------------------------------------------------------------------|
C|---------------------------------------------------------------------------------------|
G|-------3---------------------3---------------------3---------------------3---------6---|
A|-0---2-----0-0---0-----0---2-----0-0---0-----0---2-----0-0---0-----0---2-----0-3-------|

3C - Fuzz (Muted)(3rd, 6th Time)

D|---------------------------------------------------------------------------------------|
A|---------------------------------------------------------------------------------------|
F|---------------------------------------------------------------------------------------|
C|---------------------------------------------------------------------------------------|
G|-2---3-6---3-2---2-----2---3-6---3-2---2-----2---3-6---3-2---2-----2---3-6---3-2---2---|
A|-0---1-4---1-0---0-----0---1-4---1-0---0-----0---1-4---1-0---0-----0---1-4---1-0---0---|

Riff 4A - Fuzz (Open)(2x)

D|--------------------------------------------------------------------------|
A|--------------------------------------------------------------------------|
F|--------------------------------------------------------------------------|
C|-14-10---------------------------------14-10------------------------------|
G|-------14-12-12-----14-12-15-12--------------14-12-12-----14-12-15-14-----|
A|--------------0-----------13-10---------------------0-----------13-12-----|

Riff 4B - Fuzz (Open)(2x)

D|--------------------------------------------------------------------------|
A|--------------------------------------------------------------------------|
F|-16-12---------------------------------16-12------------------------------|
C|-14-10-16-14--------16-14--------------14-10-16-14--------16-14-----------|
G|-------14-12-12-----14-12-15-12--------------14-12-12-----14-12-15-14-----|
A|--------------0-----------13-10---------------------0-----------13-12-----|

Riff 5 - Fuzz (2x Open, 1x Heavy Mute)

D|-----------------------------------------------------------------------------------------------|
A|-----------------------------------------------------------------------------------------------|
F|-----------------------------------------------------------------------------------------------|
C|-4-----4-----4-----4-----4-----4-----4-----4-----4-----4-----4-----4-----4-----4-----4-----4---|
G|-2---0-2---0-2---0-2---0-2---0-2---0-2---0-2---0-2---0-2---0-2---0-2---0-2---0-2---0-2---0-2---|
A|-----------------------------------------------------------------------------------------------|

D|-----------------------------------------------------------------------------------------------|
A|-----------------------------------------------------------------------------------------------|
F|-----------------------------------------------------------------------------------------------|
C|---3-----4-----4-----4-----3-----4-----4-----3-----4-----4-----3-----4-----3-----4---4-3---2-3-|
G|-0-1---0-2---0-2---0-2---0-1---0-2---0-2---0-1---0-2---0-2---0-1---0-2---0-1---0-2-0-2-1---0-1-|
A|-----------------------------------------------------------------------------------------------|

Riff 2 - Fuzz (Open)(1x)

D|-------------------------------------------------------------------|
A|-------------------------------------------------------------------|
F|-------------------------------------------------------------------|
C|-4/5\4---4(b)-----4(b)-----4(b)---7\5\4---4(b)-----4(b)-----4(b)---|
G|-2/3\2-0-2(b)---0-2(b)---0-2(b)---5\3\2-0-2(b)---0-2(b)---0-2(b)---|
A|-------------------------------------------------------------------|

D|----------------------------------------------------------|
A|----------------------------------------------------------|
F|----------------------------------------------------------|
C|-9\7\5---5(b)-----5(b)-----5(b)--11\9\7---7-----5-----4---|
G|-7\5\3-0-3(b)---0-3(b)---0-3(b)---9\7\5-0-5---0-3---0-2---|
A|----------------------------------------------------------|

D|-------------------------------------------------------------------|
A|-------------------------------------------------------------------|
F|-------------------------------------------------------------------|
C|-4/5\4---4(b)-----4(b)-----4(b)---7\5\4---4(b)-----4(b)-----4(b)---|
G|-2/3\2-0-2(b)---0-2(b)---0-2(b)---5\3\2-0-2(b)---0-2(b)---0-2(b)---|
A|-------------------------------------------------------------------|

D|--------------------------------------------------------|
A|--------------------------------------------------------|
F|--------------------------------------------------------|
C|-9\7\5---5(b)-----5(b)-----5(b)--11\9\7---7-----5-------|
G|-7\5\3-0-3(b)---0-3(b)---0-3(b)---9\7\5-0-5---0-3---0---|
A|--------------------------------------------------------|

Riff 6 - Clean + Delay (Open + Upstroke)(6x)

D|---------0---------------------0-------------------------0---------|
A|---------0---------------------0-------------------------0---------|
F|---------0---------------------0-------------------------0---------|
C|-4---2---4---------5---4---2---4---------7---5---4---2---4---------|
G|-2---0---2---------3---2---0---2---------5---3---2---0---2---------|
A|---------------------------------------------------------0---------|

Riff 7 - Fuzz + Delay (E-Bow)(12x)

D|---------------------------------------------------------------------------|
A|---------------------------------------------------------------------------|
F|-0-------------------------------------------------------------------------|
C|---------------------------------------------------------------------------|
G|-------------------------------------0-------------------------------------|
A|---------------------------------------------------------------------------|



************************************

| /  Slide up
| \  Slide down
| h  Hammer-on
| p  Pull-off
 

************************************

            
            
Suggest correction
Creating personal tab
Creating personal tab
You can edit any tab online and save it as your Personal.

You can edit, replace or remove any tab part or add personal notes – all changes will be seen only by you.

Personal tabs can be accessed anytime from any device, even offline.
Learn more »
Give kudos to tab author, rate the tab!
1 2 3 4 5
comments
print report bad tab
guest
You may want to rate the tab now too:
select rating
Wanna post a correction for this tab? Suggest correction