Oops, an error
Loading. Please wait.

Noah And The Whale - 5 Years Time tab

6,159 views 1 this week
1 commentread comment
1 2 3 4 5
2 more votes to show rating
add to favorites
×
Save as Personal and add changes to this tab that will be seen only by you. Learn more ›
×
You can save this tab as Personal to edit and correct it or add notes. All changes will be seen only by you. Learn more »
launch autoscroll
font size
0
reset
how to read this tab
guitar tuner
edit
Autoscroll
slow
fast
+/-
esc
set tempo
stop
Author
Difficulty
Well, this song is pretty simple, but it's a pretty sounding song at the same time. it 
something like this:

C-F-G-F

and that's the whole song, plus this fill that is thrown in a couple times:

e|--------0-0--------0-0--------0-0-3-0--------------------------------------|
B|----3----------3----------3-----------3------------------------------------|
G|---------------------------------------------------------------------------|
D|---------------------------------------------------------------------------|
A|---------------------------------------------------------------------------|
E|---------------------------------------------------------------------------|

and once again, this is a simple song; it only took me about 30 seconds to figure it out.
but it is a fun one to play for the ladies, or just some friends.
-Julian.

            
            
Suggest correction
Creating personal tab
Creating personal tab
You can edit any tab online and save it as your Personal.

You can edit, replace or remove any tab part or add personal notes – all changes will be seen only by you.

Personal tabs can be accessed anytime from any device, even offline.
Learn more »
Give kudos to tab author, rate the tab!
1 2 3 4 5
comments
print report bad tab
1 comment total.
0 reply
maisey ferret 61 Sep 01, 2008 03:40 AM

The final part of the riff is:
e-0-3-----|
B----1-3--|

NOT:
e-0-0-3-0--|
B---------3|

guest
You may want to rate the tab now too:
select rating
Wanna post a correction for this tab? Suggest correction