Oops, an error
Loading. Please wait.

Nocturnal Silence - State Of Insufficiency tab

94 views 1 this week
1 commentread comment
1 2 3 4 5
1 last vote to show rating
add to favorites
×
Save as Personal and add changes to this tab that will be seen only by you. Learn more ›
×
You can save this tab as Personal to edit and correct it or add notes. All changes will be seen only by you. Learn more »
launch autoscroll
font size
0
reset
how to read this tab
guitar tuner
edit
Autoscroll
slow
fast
+/-
esc
set tempo
stop
Artist: Nocturnal Silence
Song: State of Insufficiency
Album: Nocturnal Silence





      TP   TP   TP   TP      TP   TP   TP   TP      TP   TP   TP   TP    
      Q    Q    Q    Q       Q    Q    Q    Q       Q    Q    Q    Q     
D||-----------------------|----------------------|----------------------|
A||-----------------------|----------------------|----------------------|
F||*----------------------|----------------------|----------------------|
C||*----------------------|----------------------|----------------------|
G||--------8----7----5----|--7----5----4----5----|-------8----7----5----|
C||---0-------------------|----------------------|--0-------------------|
 
 
  TP   TP     PH           TP   TP   TP   TP      TP   TP   TP   TP    
  Q    Q      H            Q    Q    Q    Q       Q    Q    Q    Q     
------------------------|----------------------|----------------------|
------------------------|----------------------|----------------------|
------------------------|----------------------|----------------------|
------------------------|----------------------|----------------------|
--7----5----<>4b--------|-------8----7----5----|--7----5----4----5----|
------------------------|--0-------------------|----------------------|
 
 
  TP       TP   TP      TP        TP   TP          TP   TP   TP   TP    
  H        Q    Q       H         Q    Q           Q    Q    Q    Q     
---------------------|------------------------||-----------------------|
---------------------|------------------------||-----------------------|
---------------------|----------------------*-||*----------------------|
---------------------|----------------------*-||*----------------------|
-----------7----8----|-----------12----8------||--------5----7----8----|
--8------------------|--8---------------------||---0-------------------|
 
 
   TP   TP   TP   TP      TP   TP   TP   TP       TP   TP    TP   TP    
   Q    Q    Q    Q       Q    Q    Q    Q        Q    Q     Q    Q     
-----------------------|----------------------|------------------------|
-----------------------|----------------------|------------------------|
-----------------------|----------------------|------------------------|
-----------------------|----------------------|------------------------|
--10----8----7----8----|-------7----8----7----|--------8----10----8----|
-----------------------|--8-------------------|--10--------------------|
 
 
  TP   TP   TP   TP       TP   TP   TP   TP      TP   TP   TP   TP    
  Q    Q    Q    Q        Q    Q    Q    Q       Q    Q    Q    Q     
----------------------|-----------------------|----------------------|
----------------------|-----------------------|----------------------|
----------------------|-----------------------|----------------------|
----------------------|-----------------------|----------------------|
-------5----7----8----|--10----8----7----8----|-------7----8----7----|
--0-------------------|-----------------------|--8-------------------|
 
 
  TP         PH                    PM                   
  H          H                Q    E  E   E  E   E  E   
-------------------------||----------------------------|
-------------------------||----------------------------|
-----------------------*-||*---------------------------|
-----------------------*-||*---------------------------|
-----------<>7b----------||---0-------5h--7--7h--8--8--|
--5----------------------||---0----0-------------------|
 
 
                           PM    PM PM    PM    PM     PM  
   E  E   E  E   E  E   E  E     E  E  E  E  E  E   E  E   
------------------------------|---------------------------|
------------------------------|---------------------------|
------------------------------|---------------------------|
------------------------------|---------------------------|
--10--7h--8--5h--7--7h--8-----|--------7-----8-----10-----|
---------------------------8--|--8--8-----8-----8------8--|
 
 
     PM     PM    PM              PM                   
  E  E   E  E  E  E  Q       Q    E  E   E  E   E  E   
--------------------------|---------------------------|
--------------------------|---------------------------|
--------------------------|---------------------------|
--7-----------------------|---------------------------|
--------10-----8-----7----|--0-------5h--7--7h--8--8--|
-----8------8-----8-------|--0----0-------------------|
 
 
                                      PM    PM       PM  
   E  E   E  E   E  E   E  E     Q    E  E  E  E  E  E   
------------------------------|-------------------------|
------------------------------|-------------------------|
------------------------------|-------------------------|
------------------------------|----------7-----7--------|
--10--7h--8--5h--7--7h--8--8--|--L----------------8-----|
---------------------------8--|--L----8-----8--------8--|
 
 
         PM      PM                       PM    PM PM    PM  
   Q     E   E   E   E   Q           Q    E  E  E  E  E  E   
--------------------------------||--------------------------|
--------------------------------||--------------------------|
------------------------------*-||*-------------------------|
------------------------------*-||*-------------------------|
--10--------10------10p--7------||---0-------8--------8-----|
--10----10------10--------------||---0----0-----0--0-----0--|
 
 
     PM PM      PM    PM    PM    PM    PM PM        
  E  E  E  Q    E  E  E     E  E  E  E  E  E   Q     
-------------------------|--------------------------|
-------------------------|--------------------------|
-------------------------|--------------------------|
-------------------------|--------------------------|
--8--------7-------7-----|-----7-----7--------10----|
-----0--0--8----8-----8--|--8-----8-----8--8--10----|
 
 
   PM      PM  PM      PM      PM                                  
   E   E   E   E   E   E   E   E      E  E  E  E  E  E  E   E   4x 
----------------------------------|------------------------------||
----------------------------------|------------------------------||
----------------------------------|----------------------------*-||
----------------------------------|----------------------------*-||
------10----------10------10------|--10--8--7--8--7--8--5h--7----||
--10------10--10------10------10--|------------------------------||
 
 
   W                   W                   W                 
--------------------|-------------------|-------------------|
--------------------|-------------------|-------------------|
*-------------------|-------------------|-------------------|
*--0----------------|--L----------------|--L----------------|
---0----------------|--L----------------|--L----------------|
---0----------------|--L----------------|--L----------------|
 
 
  W                   W                 
-------------------|-------------------|
-------------------|-------------------|
-------------------|-------------------|
--8----------------|--L----------------|
--8----------------|--L----------------|
--8----------------|--L----------------|
 
 
  |---3--|  |---3--|  |---3--|  |--3--|                           
  E  E   E  E  E   E  E   E  E  E  E  E     W                  3x 
-----------------------------------------|----------------------||
-----------------------------------------|----------------------||
-----------------------------------------|--------------------*-||
----------------------7------------------|--------------------*-||
------------7--8--10-----10--8--7--8--7--|--5~------------------||
--7--8--10-------------------------------|----------------------||
 
 
   PM PM    PM    PM    PM       PM    PM              
   E  E  E  E  E  E  E  E     E  E  E  E  E  E  E  E   
---------------------------|--------------------------|
---------------------------|--------------------------|
*--------------------------|--------------------------|
*--------------------------|--------------------------|
---------5-----7-----------|--5-----7-----8--7--5--7--|
---0--0-----0-----0--0--0--|-----0-----0--------------|
 
 
  PM PM    PM    PM PM PM       PM    PM              
  E  E  E  E  E  E  E  E     E  E  E  E   E  E  Q     
--------------------------|--------------------------|
--------------------------|--------------------------|
--------------------------|--------------------------|
--------------------------|--------------------------|
--------7-----8-----------|--7-----8-----10--8--7----|
--0--0-----0-----0--0--0--|-----0-----0--------------|
 
 
  PM PM    PM    PM    PM       PM    PM              
  E  E  E  E  E  E  E  E     E  E  E  E  E  E  E  E   
--------------------------|--------------------------|
--------------------------|--------------------------|
--------------------------|--------------------------|
--------------------------|--------------------------|
--------5-----7-----------|--5-----7-----8--7--5--7--|
--0--0-----0-----0--0--0--|-----0-----0--------------|
 
 
  |---3--|  |---3--|  |---3--|  |---3--|   
  E  E   E  E  E   E  E   E  E  E  E   E   
------------------------------------------|
------------------------------------------|
------------------------------------------|
----------------------7-------------------|
------------7--8--10-----10--8--7--8--10--|
--7--8--10--------------------------------|
 
 
                                                  PM PM PM PM PM PM  
  |--3--|  |--3--|  |--3--|  |--3--|                                 
  E  E  E  E  E  E  E  E  E  E  E  E   3x    Q    E  E  E  E  E  E   
----------------------------------------||--------------------------|
----------------------------------------||--------------------------|
--------------------------------------*-||*-------------------------|
--------------------7-----------------*-||*-------------------------|
-----------5--7--8-----8--7--5--7--8----||---0----------------------|
--5--7--8-------------------------------||---0----0--0--0--0--0--0--|
 
 
       PM PM PM PM PM PM           PM  PM  PM  PM  PM  PM  
  Q    E  E  E  E  E  E      Q     E   E   E   E   E   E   
-------------------------|--------------------------------|
-------------------------|--------------------------------|
-------------------------|--------------------------------|
-------------------------|--------------------------------|
--8----------------------|--10----------------------------|
--8----8--8--8--8--8--8--|--10----10--10--10--10--10--10--|
 
 
                                                     PM PM PM PM PM PM  
  Q    Q    Q    Q       Q    Q    Q    Q       Q    E  E  E  E  E  E   
----------------------|----------------------|-------------------------|
----------------------|----------------------|-------------------------|
----------------------|----------------------|-------------------------|
--5-------------------|----------------------|-------------------------|
-------8----7----8----|--5----7----8----7----|--0----------------------|
----------------------|----------------------|--0----0--0--0--0--0--0--|
 
 
       PM PM PM PM PM PM           PM  PM  PM  PM  PM  PM  
  Q    E  E  E  E  E  E      Q     E   E   E   E   E   E   
-------------------------|--------------------------------|
-------------------------|--------------------------------|
-------------------------|--------------------------------|
-------------------------|--------------------------------|
--8----------------------|--10----------------------------|
--8----8--8--8--8--8--8--|--10----10--10--10--10--10--10--|
 
 
  E  E  E  E  E  E   E  E   3x   W                   W                 
-----------------------------||-------------------|-------------------|
-----------------------------||-------------------|-------------------|
---------------------------*-||-------------------|-------------------|
--5-----------7------------*-||--0----------------|--L----------------|
-----8--7--5-----8--10--7----||--0----------------|--L----------------|
-----------------------------||--0----------------|--L----------------|
 
 
                                   |--3--|  |--3--|   
   W                      H        E  E  E  E  E  E   
---------------------||------------------------------|
---------------------||------------------------------|
---------------------||*-----------------------------|
---------------------||*--------------------5--------|
---------------------||---0--------5--7--8-----8--7--|
--12\----------------||---0--------------------------|
 
 
           |---3--|  |---3--|                             
  H        E  E   E  E   E  E      H         E  E  E  E   
-------------------------------|-------------------------|
-------------------------------|-------------------------|
-------------------------------|-------------------------|
---------------------7---------|-------------------------|
--8--------7--8--10-----10--8--|--10--------10--8--7--8--|
--8----------------------------|--10---------------------|
 
 
       PM    PM    PM                PM                   
  Q    E  E  E  E  E  E   3x    Q    E  E   E  E   E  E   
---------------------------||----------------------------|
---------------------------||----------------------------|
-------------------------*-||*---------------------------|
-------------------------*-||*---------------------------|
--5-------5-----7-----8----||---0-------5h--7--7h--8--8--|
--5----5-----5-----5-------||---0----0-------------------|
 
 
                           PM    PM PM    PM    PM     PM  
   E  E   E  E   E  E   E  E     E  E  E  E  E  E   E  E   
------------------------------|---------------------------|
------------------------------|---------------------------|
------------------------------|---------------------------|
------------------------------|---------------------------|
--10--7h--8--5h--7--7h--8-----|--------7-----8-----10-----|
---------------------------8--|--8--8-----8-----8------8--|
 
 
     PM     PM    PM              PM                   
  E  E   E  E  E  E  Q       Q    E  E   E  E   E  E   
--------------------------|---------------------------|
--------------------------|---------------------------|
--------------------------|---------------------------|
--7-----------------------|---------------------------|
--------10-----8-----7----|--0-------5h--7--7h--8--8--|
-----8------8-----8-------|--0----0-------------------|
 
 
                                      PM    PM       PM  
   E  E   E  E   E  E   E  E     Q    E  E  E  E  E  E   
------------------------------|-------------------------|
------------------------------|-------------------------|
------------------------------|-------------------------|
------------------------------|----------7-----7--------|
--10--7h--8--5h--7--7h--8--8--|--L----------------8-----|
---------------------------8--|--L----8-----8--------8--|
 
 
         PM      PM                       PM    PM PM    PM  
   Q     E   E   E   E   Q           Q    E  E  E  E  E  E   
--------------------------------||--------------------------|
--------------------------------||--------------------------|
------------------------------*-||*-------------------------|
------------------------------*-||*-------------------------|
--10--------10------10p--7------||---0-------8--------8-----|
--10----10------10--------------||---0----0-----0--0-----0--|
 
 
     PM PM      PM    PM    PM    PM    PM PM        
  E  E  E  Q    E  E  E     E  E  E  E  E  E   Q     
-------------------------|--------------------------|
-------------------------|--------------------------|
-------------------------|--------------------------|
-------------------------|--------------------------|
--8--------7-------7-----|-----7-----7--------10----|
-----0--0--8----8-----8--|--8-----8-----8--8--10----|
 
 
   PM      PM  PM      PM      PM                                  
   E   E   E   E   E   E   E   E      E  E  E  E  E  E  E   E   4x 
----------------------------------|------------------------------||
----------------------------------|------------------------------||
----------------------------------|----------------------------*-||
----------------------------------|----------------------------*-||
------10----------10------10------|--10--8--7--8--7--8--5h--7----||
--10------10--10------10------10--|------------------------------||
 
 
  W                   W                  
-------------------|-------------------||
-------------------|-------------------||
-------------------|-------------------||
--0----------------|--L----------------||
--0----------------|--L----------------||
--0----------------|--L----------------||
 
 
 
 
Duration Legend
---------------
W - whole
H - half
Q - quarter
E - 8th
S - 16th
T - 32nd
X - 64th
. - note dotted
|-n-|  - n-tuplets
 
 
Tablature Legend
----------------
L - tied note
x - dead note
g - grace note
(n) - ghost note
> - accentuded note
NH - natural harmonic
AH - artificial harmonic
TH - tapped harmonic
SH - semi harmonic
PH - pitch harmonic
h - hammer on
p - pull off
b - bend
br - bendRelease
pb - preBend
pbr - preBendRelease
brb - bendReleaseBend
\n/ - tremolo bar dip
\n - tremolo bar dive
-/n - tremolo bar Release up
/n\ - tremolo bar inverted dip
/n - tremolo bar return
-\n - tremolo bar Release down
S - shift slide
s - legato slide
/ -  slide into from below or out of upwards
\ -  slide into from above or out of downwards
~ - vibrato
W - wide vibrato
tr - tril'
TP - tremolo picking
T - tapping
S - slap
P - pop
< - fade in
^ - brush up
v - brush down

            
            
Suggest correction
Creating personal tab
Creating personal tab
You can edit any tab online and save it as your Personal.

You can edit, replace or remove any tab part or add personal notes – all changes will be seen only by you.

Personal tabs can be accessed anytime from any device, even offline.
Learn more »
Give kudos to tab author, rate the tab!
1 2 3 4 5
comments
print report bad tab
1 comment total.
0 reply
Guitar Guy 93 10 Jun 03, 2008 12:30 AM

it sounded ok 4*

guest
You may want to rate the tab now too:
select rating
Wanna post a correction for this tab? Suggest correction