Oops, an error
Loading. Please wait.

Osamuraisan - Senbonzakura tab

68,222 views 129 this week
3 commentsread comments
1 2 3 4 5
x 20
add to favorites
×
Save as Personal and add changes to this tab that will be seen only by you. Learn more ›
×
You can save this tab as Personal to edit and correct it or add notes. All changes will be seen only by you. Learn more »
launch autoscroll
font size
0
reset
how to read this tab
guitar tuner
edit
Autoscroll
slow
fast
+/-
esc
set tempo
stop
-------------------------------------------------------------------------------
                             Senbonzakura - Osamuraisan (originally Miku Hatsune)
-------------------------------------------------------------------------------
Tabbed by: Neil Wicker
E-mail: wicker101@hotmail.co.uk
YouTube: http://bit.ly/NeilWickerMusic

Tuning: Standard


please note:

-tabbed from this video http://www.youtube.com/watch?v=81_wklJTFRc

-when there are 4 notes at once like at the end of the second bar most of the time this 
is played in a sweeping motion somewhere between a single pick and full strum.

-this song is difficult and I recommend playing along with the song a lot to get an 
understanding on the timing throughout.

-please rate if you find this tab useful.

--
0:02 - 0:11

e|--------------------------------------|-----------------------------0-|
B|-----------------------------------1--|--------------------1--1--3--0-|
G|--2--2--0--2--2--0--2--2--0--2--2--2--|--2--2--0--2--2--0--2--0--0--1-|
D|--2--2--2--2--2--2--2--2--2--2--2-----|--2--2--2--2--2--2--2--2--4--2-|
A|--0-----------------------------------|--0-----------------0--3--5--2-|
E|--------------------------------------|-----------------------------0-|

--
0:11 - 0:30

e|-----0-------------0-----------|-----0--------------------------|
B|--3-------------3--------------|--3-------------1--0h1p0--------|
G|--2-----0h2--0--0-----0h2--0---|--2-----0h2--0------------2--0--|
D|--3-------------0--------------|--0-----------------------------|
A|-------------------------------|--0-----------------------------|
E|--1-------------3--------------|----------------0---------------|

e|-----0-------------0-----------|-----------8--7--5--3--0--------|
B|--3-------------3--------------|--3--5--8-----7--5--3--0--------|
G|--2-----0h2--0--0-----0h2--0---|--2--4--7-----------------------|
D|--3-------------2--------------|--------------------------------|
A|-------------------------------|--0-----------------------------|
E|--1-------------3--------------|--------------0-----------------|

e|-----0-------------0-----------|-----0--------------------------|
B|--3-------------3--------------|--3-------------1--0h1p0--------|
G|--2-----0h2--0--0-----0h2--0---|--2-----0h2--0------------2--0--|
D|--3-------------0--------------|--0-----------------------------|
A|-------------------------------|--0-----------------------------|
E|--1-------------3--------------|----------------0---------------|
                                              [short guitar percussion here]
e|-------------------------------|--------------------------------|
B|-----------1--3-----0----------|--------------------------------|
G|--2--0--2-----0--------0-------|--2--2--0--2--------------------|
D|--3-----------0--0-------------|--2--2--2--2--------------------|
A|--0----------------------------|--------------------------------|
E|--1-----------3----------------|--------------------------------|

---
0:30 - 0:48

e|--0-----------------0--|--------------------------|
B|--0-----------1--3-----|-----1--------------------|
G|--2--2--0--2-----------|--2--------2--2--0-----0--|
D|--2--------------------|--3-----3-----0-----2-----|
A|-----------------------|--------------------------|
E|-----------------------|--1-----------3-----------|

e|--------------------0--|--0-----------------------|
B|--------------1--3-----|--------3p1---1-----------|
G|--2--2--0--2-----------|--------2-----2-----2--0--|
D|--2--2-----------------|-----3-----------0--------|
A|--0--------------------|--------------------------|
E|-----------------------|--1-----------3-----------|

e|--------------------0--|--------------------------|
B|--------------1--3-----|-----1--------------------|
G|--2--2--0--2-----------|--2--------2--2--0------0-|
D|--2--2-----------------|--3-----3-----0-----1h2---|
A|--0--------------------|--------------------------|
E|-----------------------|--1-----------3-----------|

e|--------------------0--|--0---------0-------------|
B|--------------1--3-----|--------3p1---1-----------|
G|--2--2--0--2-----------|--------------2-----2-----|
D|--2--2-----------------|-----3-----------0-----0--|
A|--0--------------------|--------------------------|
E|-----------------------|--1-----------3-----------|

--
0:48 - 1:05

e|-------------------------|-------------------------|------------------------|
B|--1-----0----------------|-------------------------|--------------3-----0---|
G|--2-----------2----0-----|--2--0h2--------------0--|--------2--0--0---------|
D|--3--------3-----3----3--|--2-------2--0--2--2-----|--3-----------0--------0|
A|--3--3-------------------|-------------------------|-----3--------3--3------|
E|-------------------------|--0----------------------|--1---------------------|

e|-------------------------|-------------------------|------------------------|
B|--1-----0----------------|--3-----0----------------|------------------------|
G|--2--------0--2-----2----|--2-----------2-----0----|--2--0h2--------------0-|
D|--2--------------2-------|--3--------3-----3-----3-|--2-------2--0--2--2----|
A|--0--0-------------------|--3--3-------------------|------------------------|
E|-------------------------|-------------------------|--0---------------------|

e|-------------------------|--------------------0----|
B|-------------------3-----|--0--------------0--0----|
G|--2--2----2--2-----------|--1-----------1-----1----|
D|--0--0----0--0--0-----0--|--2-----2----------------|
A|-------------------------|-------------------------|
E|--2--2----2--2-----------|--0--0-------------------|

--
1:07 - 1:24

e|--------------0--0--------0--|--3--5p3--0-----0-----------|
B|-----1--3--3-----1--------0--|--3----------3--1--------1--|
G|--2-----2--------2-----2-----|--0-------------2-----2-----|
D|--------3-----------3--------|-----0-------------3--------|
A|--------0--------------------|----------------0-----------|
E|-----------------1-----------|--3-------------------------|

e|-----------0--0--------0-----|--1--0-----------------0----|
B|--3-----3-----1--------0-----|--0-----3--1--1--------0----|
G|--2-----------2-----2--------|--0-----0--0--0-----0-------|
D|-----0-----------3-----------|--------------2--2----------|
A|--0--------------------------|--------------3-------------|
E|--------------1--------------|--3-------------------------|

e|-----------0--0--------0-----|--3--5p3--0-----0-----------|
B|--3-----3-----1--------0-----|--3----------3--1--------1--|
G|--2-----------2-----2--------|--0-------------2-----2-----|
D|-----0-----------3-----------|-----0-------------3--------|
A|--0--------------------------|----------------0-----------|
E|--------------1--------------|--3-------------------------|

e|--1-----0--------------------|-----0----------------------|
B|--1-----------3------1-------|--3-------------------------|
G|--2--2-----0--2------0-------|--2-----0-----2-------------|
D|--------------3---3-----3----|--3--------2--2-------------|
A|-----------------------------|--------------0-------------|
E|--1-----------0--------------|--1-----3-----0-------------|

--
1:25 - 1:41

e|--------------0--0--------0--|--3--5p3--0-----0-----------|
B|-----1--3--3-----1--------0--|--3----------3--1--------1--|
G|--2-----2--------2-----2-----|--0-------------2-----2-----|
D|--------3-----------3--------|-----0-------------3--------|
A|--------0--------------------|----------------0-----------|
E|-----------------1-----------|--3-------------------------|

e|-----------0--0--------0-----|--1--0-----------------0----|
B|--3-----3-----1--------0-----|--0-----3s5s4-1--------0----|
G|--2-----------2-----2--------|--0-----0-----0-----0-------|
D|-----0-----------3-----------|--------------2--2----------|
A|--0--------------------------|--------------3-------------|
E|--------------1--------------|--3-------------------------|

e|-----------0--0--------0-----|--3--5p3--0-----0-----------|
B|--3-----3-----1--------0-----|--3----------3--1--------1--|
G|--2-----------2-----2--------|--0-------------2-----2-----|
D|-----0-----------3-----------|-----0-------------3--------|
A|--0--------------------------|----------------0-----------|
E|--------------1--------------|--3-------------------------|

e|--1-----0--------------------|--------0--3--5-------------|
B|--1-----------3------1-------|--3--1--0--3--5-------------|
G|--2--2-----0--2------0-------|--2-----0-----5-------------|
D|--------------3---3-----3----|--3-------------------------|
A|-----------------------------|----------------------------|
E|--1-----------0--------------|--1-----3-----5-------------|

--
1:42 - 2:00

 single strum chords                    strumming chords (3 times each)
e|--0--0--0--0--0--0--0--------|--0--0--0--1--1--0--0--0--0--|
B|--1--1--0--0--1--1--0--------|--0--1--1--3--3--1--1--0--0--|
G|--0--0--0--0--0--0--0--------|--1--0--0--2--2--0--0--0--0--|
D|--2--3--0--2--2--3--0--------|--2--2--2--3--3--2--2--0--0--|
A|--0--0--2--3--0--0--2--------|--2--0--0--1--1--0--0--2--2--|
E|--0--0--3--0--0--0--3--------|--0--0--0--1--1--0--0--3--3--|

--
2:00 - 2:16

e|--0--0-------------0-----------|-----0--------------------------|
B|--3-------------3--------------|--3-------------1--0h1p0--------|
G|--2-----0h2--0--0-----0h2--0---|--2-----0h2--0------------2--0--|
D|--3-------------0--------------|--0-----------------------------|
A|--0----------------------------|--0-----------------------------|
E|--1-------------3--------------|----------------0---------------|

e|-----0-------------0-----------|-----------8--7--5--3--0--------|
B|--3-------------3--------------|--3--5--8-----7--5--3--0--------|
G|--2-----0h2--0--0-----0h2--0---|--2--4--7-----------------------|
D|--3-------------2--------------|--------------------------------|
A|-------------------------------|--0-----------------------------|
E|--1-------------3--------------|--------------0-----------------|

e|-----0-------------0-----------|-----0--------------------------|
B|--3-------------3--------------|--3-------------1--0h1p0--------|
G|--2-----0h2--0--0-----0h2--0---|--2-----0h2--0------------2--0--|
D|--3-------------0--------------|--0-----------------------------|
A|-------------------------------|--0-----------------------------|
E|--1-------------3--------------|----------------0---------------|

e|-----------------0-------------|--------------------------------|
B|-----------1--3----------------|--------------------------------|
G|--2--0--2-----0-----2--0--2----|--------------------------------|
D|--3-----------0-----------2----|--------------------------------|
A|--0-----------------------0----|--------------------------------|
E|--1-----------3----------------|--------------------------------|

--
2:20 - 2:34

e|-------------------------|-------------------------|------------------------|
B|--1-----0----------------|-------------------------|--------------3-----0---|
G|--2-----0-----2-----0----|--0--2-------------------|--------2-----0---------|
D|--3-----------3-----3----|--------2--0--2----------|--3---------------------|
A|-------------------------|-------------------------|------------------------|
E|--1--1--1--1--1--1--1--1-|--0--0--0--0--0--0--0--0-|--1--1--1--1--3--3--3--3|

e|-------------------------|-------------------------|------------------------|
B|--1-----0----------------|--1-----0----------------|------------------------|
G|--2--------0--2----------|--2-----0-----2-----0----|--0--2-----------------0|
D|-------------------------|--3-----------3-----3----|--------2--0--2-----2---|
A|--0--0--0--0--0--0--0--0-|-------------------------|------------------------|
E|-------------------------|--1--1--1--1--1--1--1--1-|--0--0--0--0--0--0--0--0|

e|-------------------------|--0--0--0--0--0--12+--0--5+-|
B|-------------------3-----|--0--0--0--0--0--12+--0--5+-|
G|--2--2----2--2-----------|--1--1--1--1--1-------1-----|
D|--0--0----0--0--0-----0--|--2--2--2--2--2-------2-----|
A|-------------------------|--2--2--2--2--2-------2-----|
E|--2--2----2--2-----------|--0--0--0--0--0-------0-----|

--
2:35 - 2:49

e|--------------0--0--------0--|--3--5p3--0-----0-----------|
B|-----1--3--3-----1--------0--|--3----------3--1--------1--|
G|--2-----2--------2-----2-----|--0-------------2-----2-----|
D|--------3-----------3--------|-----0-------------3--------|
A|--------0--------------------|----------------0-----------|
E|-----------------1-----------|--3-------------------------|

e|--------------0--0--------0--|--1--0--0--0-----------0----|
B|-----1--3--3-----1--------0--|--0-----3--1--1--------0----|
G|--2-----2--------2-----2-----|--0-----------0-----0-------|
D|--------3-----------3--------|--------------2--2----------|
A|--------0--------------------|--------------3-------------|
E|-----------------1-----------|--3-------------------------|

e|--------------0--0--------0--|--3--5p3--0-----0-----------|
B|-----1--3--3-----1--------0--|--3----------3--1--------1--|
G|--2-----2--------2-----2-----|--0-------------2-----2-----|
D|--------3-----------3--------|-----0-------------3--------|
A|--------0--------------------|----------------0-----------|
E|-----------------1-----------|--3-------------------------|

e|--1-----0--------------------|-----0----------------------|
B|--1-----------3------1-------|--3-----------------------1-|
G|--2--2-----0--2------0-------|--2-----0-----2---------2---|
D|--------------3---3-----3----|--3--------2--2-------------|
A|-----------------------------|--------------0-------------|
E|--1-----------0--------------|--1-----3-----0-------------|

--
2:50 - 3:09

this is just a guide of how to play this part, V for down strum and ^ for up strum.
Use a lot of palm muting and practice... it's one of the more difficult
parts of the song. Again, playing along with the song will help.

    V  ^ V  ^   V  V ^     V  ^ V  ^   V  V ^     V  ^ V  ^   V  V ^
e|--0--0-0--0---2--2-2--|--5--5-7--5---2--0-0--|--0--0-0--0---2--2-2----|
B|--0--0-0--0---0--0-0--|--0--0-0--0---3--0-3--|--0--0-0--0---0--0-0----|
G|--0--0-0--0---0--0-0--|--6--6-6--6---2--2-2--|--0--0-0--0---0--0-0----|
D|--0--0-0--0---0--0-0--|--7--7-7--7---0--0-0--|--0--0-0--0---0--0-0----|
A|--2--2-2--2---0--0-0--|--0--0-0--0---0--0-0--|--2--2-2--2---0--0-0----|
E|--------------3--3-3--|----------------------|--------------3--3-3----|

    V   ^ V   V  ^         V  ^ V  ^   V  V ^     V  ^ V  ^   V  V ^
e|--0h2-2-2p0-2--2------|--0--0-0--0---2--2-2--|--5--5-5--5---2--0-0----|
B|--0---0-0---3--3p0----|--0--0-0--0---0--0-0--|--0--0-0--0---3--0-3----|
G|--0---0-0---2--2------|--0--0-0--0---0--0-0--|--6--6-6--6---2--2-2----|
D|--0---0-0---0--0------|--0--0-0--0---0--0-0--|--7--7-7--7---0--0-0----|
A|--2---2-2---0--0------|--2--2-2--2---0--0-0--|--0--0-0--0---0--0-0----|
E|------------3--3------|--------------3--3-3--|------------------------|

e|--3--2--0--0--0--2--3--5--7---------------7+-|
B|--0--0--0--3--0--0--0--0--0---------------7+-|
G|--0--0--0--0--0--0--0--5--7---------------7+-|
D|------------------------------------------7+-|
A|--------------------------7---------------7+-|
E|--3--0--2--0--2--0--3--5------------------7+-|

--
3:10 - end

e|--0--2---------0--2---------|--0--2-------------------------|
B|--0-------0----0-------0----|--0-------0----3--2h3p2--------|
G|--0-----2---2--2-----2---2--|--0-----2---2------------4--2--|
D|--0------------0------------|--0----------------------------|
A|--0------------0------------|--2------------0---------------|
E|--3-------------------------|-------------------------------|

e|--0--2---------0--2---------|--0--2-------------------------7+----|
B|--0-------0----0-------0----|--0-------0------12+----7+--------7+-|
G|--0-----2---2--2-----2---2--|--0-----2---2--------7+----7+--------|
D|--0------------0------------|--0------------7+--------------------|
A|--0------------0------------|--2----------------------------------|
E|--3-------------------------|---------------0---------------------|

e|--0--2---------0--2---------|--0--2-------------------------|
B|--0-------0----0-------0----|--0-------0----3--2h3p2--------|
G|--0-----2---2--2-----2---2--|--0-----2---2------------4--2--|
D|--0------------0------------|--0----------------------------|
A|--3------------0------------|--2------------0---------------|
E|--3-------------------------|-------------------------------|

                               [ending chords]
e|--------------0--2-----------|--------0---19+------|
B|-----------3--0-----0-----0--|--------3-------19+--|
G|--4--2--4--------------2-----|--0--4--0------------|
D|--0--------------------------|--0--4--4------------|
A|--------------0-----------2--|--2--2--2------------|
E|--3--------------------------|--0--0--0------------|



************************************

| /   slide up
| \   slide down
| h   hammer-on
| p   pull-off
| ~   vibrato
| +   harmonic
| x   Mute note
| b   Bend
| pb  Pre-bend
| br  Bend release
| pbr Pre-bend release
| brb Bend release bend

************************************

            
            
Suggest correction
Creating personal tab
Creating personal tab
You can edit any tab online and save it as your Personal.

You can edit, replace or remove any tab part or add personal notes – all changes will be seen only by you.

Personal tabs can be accessed anytime from any device, even offline.
Learn more »
comments
print report bad tab
3 comments total.
0 reply
ImKindaBusy 10 Apr 24, 2013 10:20 PM

Amazing work of art, the song itself and the tab. Great job.

0 reply
jokerKid 94 10 Jul 09, 2015 06:19 PM

well this tab is from another guy who all ready made it on another web site, but still it looks a little bit different and yes sounds amazing, good job bro!

0 reply
wikaman1 1,876 Jul 09, 2015 11:54 PM

hmm, I made this tab from scratch, didn't know someone else had done one. Can you send me a link?

guest
You may want to rate the tab now too:
select rating
Wanna post a correction for this tab? Suggest correction