Oops, an error
Loading. Please wait.

Our Silence Will Be Heard - Poomba Is Forceful bass

54 views 1 this week
no commentswrite comment
1 2 3 4 5
3 more votes to show rating
add to favorites
×
Save as Personal and add changes to this tab that will be seen only by you. Learn more ›
×
You can save this tab as Personal to edit and correct it or add notes. All changes will be seen only by you. Learn more »
launch autoscroll
font size
0
reset
guitar tuner
edit
Autoscroll
slow
fast
+/-
esc
set tempo
stop
Drop D!

00:00-00:11           x4
|--------------------------------------|--------------------------------------|
|--------------------------------------|--------------------------------------|
|--------------------------------------|--------------------------------------|
|--------------------------------------|--------------------------------------|
|------12-----10---------12---10---9---|------12-----10---------12---10---6---|
|--0-0----0-0----0-0-0-0----0----0---0-|--0-0----0-0----0-0-0-0----0----0---0-|

00:11-00:32
|----------------------------------|-----------------------------------|
|----------------------------------|-----------------------------------|
|----------------------------------|-----------------------------------|
|----------------------------------|-----------------------------------|
|------6-----6---------6---6---6---|------5-----5---------5---5---5----|
|--0-0---0-0---0-0-0-0---0---0---0-|--0-0---0-0---0-0-0-0---0---0---0--|

|----------------------------------|-----------------------------------|
|----------------------------------|-----------------------------------|
|----------------------------------|-----------------------------------|
|----------------------------------|-----------------------------------|
|------6-----6---------6---6---6---|------5-----5---------5---5---5----|
|--0-0---0-0---0-0-0-0---0---0---0-|--0-0---0-0---0-0-0-0---0---0---0--|

|----------------------------------|-----------------------------------|
|----------------------------------|-----------------------------------|
|----------------------------------|-----------------------------------|
|----------------------------------|-----------------------------------|
|------6-----6---------6---6---6---|------5-----5---------5---5---5----|
|--0-0---0-0---0-0-0-0---0---0---0-|--0-0---0-0---0-0-0-0---0---0---0--|

|----------------------------------|------------------|
|----------------------------------|------------------|
|----------------------------------|------------------|
|----------------------------------|------------------|
|------6-----6---------6---6---6---|------5-----5-----|
|--0-0---0-0---0-0-0-0---0---0---0-|--0-0---0-0---0-0-|


00:32-00:37
|----------------------------------|---------------------------------|
|----------------------------------|---------------------------------|
|----------------------------------|---------------------------------|
|----------------------------------|---------------------------------|
|------5---6---7-------8---9---10--|---------------------------------|
|--0-0-------------0-0-------------|--0-0----0-0----0-0-0-0-0----0---|


00:37-1:09                  x3
|------------------------------------------------------------|
|------------------------------------------------------------|
|------------------------------------------------------------|
|------------------------------------------------------------|
|------------------------------------------------------------|
|--0-0----0-0----0-0-0-0-0-0----8-8----8-8----8-8-8-8-8-8----|

|--------------------------------------------------------------------|
|--------------------------------------------------------------------|
|--------------------------------------------------------------------|
|--------------------------------------------------------------------|
|--------------------------------------------------------------------|
|--10-10----10-10----10-10-10-10-10-10---8-8----8-8----8-8-8-8-8-8---|

1:09-1:44(amazing simplified version)    x3
this part is just a bunch of 5's for four measures and than a bunch 4's four four measures
|------------------------------------------------------|
|------------------------------------------------------|
|------------------------------------------------------|
|------------------------------------------------------|
|--5-5-5-5-5-5-5-5-5-5-5-5-5-5-5-4-4-4-4-4-4-4-4-4-4-4-|
|------------------------------------------------------|


1:44-1:50
|-------------------------------------------------------------------|
|-------------------------------------------------------------------|
|----------3---------------4-------5-2---------------------2-5------|
|------3-------3-------4-------4-------4-1-------------1-4-----1-4--|
|--1---------------2-----------------------3-0-----0-3--------------|
|----------------------------------------------4-1------------------|


1:50-2:12
|----------------------------------|----------------------------------|
|----------------------------------|----------------------------------|
|----------------------------------|----------------------------------|
|----------------------------------|----------------------------------|
|------8-------8-------8-------8---|------7-------7-------7-------7---|
|--7-7---7-7-7---7-7-7---7-7-7---7-|--7-7---7-7-7---7-7-7---7-7-7---7-|

|----------------------------------------------------------------------|
|----------------------------------------------------------------------|
|----------------------------------------------------------------------|
|----------------------------------------------------------------------|
|------8-------8-------8-------8-------10-------10-------10-----10-----|
|--7-7---7-7-7---7-7-7---7-7-7---7-7-7----7-7-7----7-7-7----7-7----7-7-|

|------------------------------------------------------------------|
|------------------------------------------------------------------|
|------------------------------------------------------------------|
|------------------------------------------------------------------|
|------8-8-----8-8-----8-8-----8-8-----7-7-----7-7-----7-7-----7-7-|
|--7-7-----7-7-----7-7-----7-7-----7-7-----7-7-----7-7-----7-7-----|

|----------------------------------------------------------------------|
|----------------------------------------------------------------------|
|----------------------------------------------------------------------|
|----------------------------------------------------------------------|
|------8-8-----8-8-----8-8-----8-8-----10-10---10-10---10-10-----10-10-|
|--7-7-----7-7-----7-7-----7-7-----7-7-------7-------7-------7-7-------|


2:12-2:23                  This Part Is REALLLLYYY Important!
|------------------------------------------------------------------------|
|------------------------------------------------------------------------|
|------------------------------------------------------------------------|
|------------------------------------------------------------------------|
|---------8---------------8-----------------7-----------------7----------|
|--7--------7----7-7--------7-----7-7---------7-------7-7-------7-----7--|

|------------------------------------------------------------------------|
|------------------------------------------------------------------------|
|------------------------------------------------------------------------|
|------------------------------------------------------------------------|
|---------8---------------8-----------------10----------------10---------|
|--7--------7----7-7--------7-----7-7---------7-------7-7-------7-----7--|


2:23-2:35
|------------------------------------------------------------------|
|------------------------------------------------------------------|
|------------------------------------------------------------------|
|------------------------------------------------------------------|
|------8-8-----8-8-----8-8-----8-8-----7-7-----7-7-----7-7-----7-7-|
|--7-7-----7-7-----7-7-----7-7-----7-7-----7-7-----7-7-----7-7-----|

|----------------------------------------------------------------------|
|----------------------------------------------------------------------|
|----------------------------------------------------------------------|
|----------------------------------------------------------------------|
|------8-8-----8-8-----8-8-----8-8-----10-10---10-10---10-10-----10-10-|
|--7-7-----7-7-----7-7-----7-7-----7-7-------7-------7-------7-7-------|


2:35-2:51
|---------------|-------------|------------|---------------|
|---------------|-------------|------------|---------------|
|---------------|-------------|------------|---------------|
|---------------|-------------|------------|---------------|
|---------------|-------------|------------|---------------|
|--7------------|--7----------|--7---------|--7------------|


2:51-3:06                    Play these on the cymbal hits
|---------------------------------------------------------------------|
|---------------------------------------------------------------------|
|---------------------------------------------------------------------|
|---------------------------------------------------------------------|
|---------------------------------------------------------------------|
|--7------8------9------8------7-------8------9------10--------11-----|


3:06-3:17
|--------------------------------------------------------------------------|
|--------------------------------------------------------------------------|
|--------------------------------------------------------------------------|
|--------------------------------------------------------------------------|
|--------------------------------------------------------------------------|
|--0-0-0-0-0-0-0-0-10-10-10-10-10-10-10-10-8-8-8-8-8-8-8-8-7-7-7-7-7-7-7-7-|


3:17-3:30
|--------------------------------------|
|--------------------------------------|
|--------------------------------------|
|--------------------------------------|
|--------------------------------------|
|--0-0-0-0-10-10-10-10-8-8-8-8-7-7-7-7-|

|-------------------------------------------------|
|-------------------------------------------------|
|-------------------------------------------------|
|-------------------------------------------------|
|-------------------------------------------------|
|--0-0-0-0-10-10-10-10-8-8-8-8-7-----8--8-7-------|


Okay this next part is in 6/4  so count to 6 and the measure will start over. The snare 
play the breakdown for 4 measures. So you could count to 24 but just count to 6 4 times. 
be easier.


3:38-3:45
This is the breakdown. Just play it on the low D string.

3:47-End   x2
|----------------------------------------------|
|----------------------------------------------|
|----------------------------------------------|
|----------------------------------------------|
|--------5-8-5-4--------------5-8-5-4----------|
|--0-0-0-----------7--6-0-0-0----------0-0-0-0-|

|---------------------------------------|
|---------------------------------------|
|-----------------------------------7---|
|---------------------------------7---7-|
|--------5-8-5-4----------------5-------|
|--0-0-0-----------7--6-0-0-0-0---------|

            
            
Suggest correction
Creating personal tab
Creating personal tab
You can edit any tab online and save it as your Personal.

You can edit, replace or remove any tab part or add personal notes – all changes will be seen only by you.

Personal tabs can be accessed anytime from any device, even offline.
Learn more »
Give kudos to tab author, rate the tab!
1 2 3 4 5
comments
print report bad tab
guest
You may want to rate the tab now too:
select rating
Wanna post a correction for this tab? Suggest correction