Oops, an error
Loading. Please wait.

P Groisman - Short Story tab

181 views 1 this week
no commentswrite comment
1 2 3 4 5
1 last vote to show rating
add to favorites
×
Save as Personal and add changes to this tab that will be seen only by you. Learn more ›
×
You can save this tab as Personal to edit and correct it or add notes. All changes will be seen only by you. Learn more »
launch autoscroll
font size
0
reset
how to read this tab
guitar tuner
edit
Autoscroll
slow
fast
+/-
esc
set tempo
stop
Author
Difficulty
About this tab version
There are no tabs or sheet music of this online, chose to make a tab of it. Was this info helpful? Yes No
I haven't found any of his music online, but i think they sound very nice, so i wanted to share it with you.
it is one of my favourite ones of his.

this is a link of how it should sound (i played it, so you can make it slower or faster, whatever you prefer) 
https://soundcloud.com/user-223005619/p-groisman-short-story

Tuning: Standard

(it is played in a 3/4 beat, start it off a little slow or lazy, and then speed it up a little,
but not too much, as if it is the beginning of a journey)

(it shouldn't be too fast, its somewhat lazy paced, play it at the speed which sounds best to you)

(ALL of the piece is in Let-Ring form, as in let all of the notes RING if you can)


[Part one]

e|-------|-------------|---------0-2-|-3-----2-----|-0-----0-2-3-|-----------0-|-------------|
B|-3-2-1-|-0-----1-----|-3-----3-----|---0-0---0-0-|---1-1-------|-3-----1-3---|-0-------0-1-|
G|-------|---0-0---0-0-|---0-0-------|-------------|-------------|---0-0-------|---0-0-2-----|
D|-------|-------------|-------------|-2-----0-----|-------0-----|-------------|-------------|
A|-------|-------0-----|-2-----------|-------------|-3-----------|-2-----0-----|-------------|
E|-------|-3-----------|-------------|-------------|-------------|-------------|-3-----2-----|

e|-------------|-------------|-------------|---------0-2-|-3-----2-----|-0-----0-2-3-|-----------0-|
B|-0-----------|-0-----3-2-1-|-0-----1-----|-3-----3-----|---0-0---0-0-|---1-1-------|-3-----1-3---|
G|-------2-0-2-|-------------|---0-0---0-0-|---0-0-------|-------------|-------------|---0-0-------|
D|---0-0-------|---0-0-------|-------------|-------------|-2-----0-----|-------0-----|-------------|
A|-------------|-------------|-------0-----|-2-----------|-------------|-3-----------|-2-----0-----|
E|-3-----2-----|-3-----------|-3-----------|-------------|-------------|-------------|-------------|

e|-------------|-------------|-------|
B|-0-------0-1-|-0-----------|-------|
G|---0-0-2-----|-------2-----|-0-----|
D|-------------|---0-0---0-0-|-------|
A|-------------|-------------|-------|
E|-3-----2-----|-3-----2-----|-3-----|


[Part Two]

e|-7---5-|-7-----5-----|-3-----3-0-2-|-3-----2-----|-0-----0-2-3-|-----------0-|-------------|
B|---8---|---0-0---3-3-|---0-0-------|---0-0---0-0-|---1-1-------|-3-----1-3---|-0-------0-1-|
G|-------|-0-----------|-0-----------|-------------|-------------|---0-0-------|---0-0-2-----|
D|-------|-------0-----|-------------|-2-----0-----|-------0-----|-------------|-------------|
A|-------|-------------|-------------|-------------|-3-----------|-2-----0-----|-------------|
E|-------|-------------|-------------|-------------|-------------|-------------|-3-----2-----|

e|-------------|-------7---5-|-7-----5-----|-3-----3-0-2-|-3-----2-----|-0-----0-2-3-|-----------0-|
B|-0-----------|-0-------8---|---0-0---3-3-|---0-0-------|---0-0---0-0-|---1-1-------|-3-----1-3---|
G|-------2-0-2-|-------------|-0-----------|-0-----------|-------------|-------------|---0-0-------|
D|---0-0-------|---0-0-------|-------0-----|-------------|-2-----0-----|-------0-----|-------------|
A|-------------|-------------|-------------|-------------|-------------|-3-----------|-2-----0-----|
E|-3-----2-----|-3-----------|-------------|-------------|-------------|-------------|-------------|

e|-------------|-------------|-------|
B|-0-------0-1-|-0-----------|-------|
G|---0-0-2-----|-------2-----|-0-----|
D|-------------|---0-0---0-0-|-0-----|
A|-------------|-------------|-------|
E|-3-----2-----|-3-----2-----|-3-----|


[Part Three]

(same as part one)

e|-------|-------------|---------0-2-|-3-----2-----|-0-----0-2-3-|-----------0-|-------------|
B|-3-2-1-|-0-----1-----|-3-----3-----|---0-0---0-0-|---1-1-------|-3-----1-3---|-0-------0-1-|
G|-------|---0-0---0-0-|---0-0-------|-------------|-------------|---0-0-------|---0-0-2-----|
D|-------|-------------|-------------|-2-----0-----|-------0-----|-------------|-------------|
A|-------|-------0-----|-2-----------|-------------|-3-----------|-2-----0-----|-------------|
E|-------|-3-----------|-------------|-------------|-------------|-------------|-3-----2-----|

e|-------------|-------------|-------------|---------0-2-|-3-----2-----|-0-----0-2-3-|-----------0-|
B|-0-----------|-0-----3-2-1-|-0-----1-----|-3-----3-----|---0-0---0-0-|---1-1-------|-3-----1-3---|
G|-------2-0-2-|-------------|---0-0---0-0-|---0-0-------|-------------|-------------|---0-0-------|
D|---0-0-------|---0-0-------|-------------|-------------|-2-----0-----|-------0-----|-------------|
A|-------------|-------------|-------0-----|-2-----------|-------------|-3-----------|-2-----0-----|
E|-3-----2-----|-3-----------|-3-----------|-------------|-------------|-------------|-------------|

e|-------------|-------------|-------|
B|-0-------0-1-|-0-----------|-------|
G|---0-0-2-----|-------2-----|-0-----|
D|-------------|---0-0---0-0-|-------|
A|-------------|-------------|-------|
E|-3-----2-----|-3-----2-----|-3-----|

            
            
Suggest correction
Creating personal tab
Creating personal tab
You can edit any tab online and save it as your Personal.

You can edit, replace or remove any tab part or add personal notes – all changes will be seen only by you.

Personal tabs can be accessed anytime from any device, even offline.
Learn more »
Give kudos to tab author, rate the tab!
1 2 3 4 5
comments
print report bad tab
guest
You may want to rate the tab now too:
select rating
Wanna post a correction for this tab? Suggest correction