Oops, an error
Loading. Please wait.

Paper Route - Are We All Forgotten bass

674 views 1 this week
3 commentsread comments
1 2 3 4 5
1 last vote to show rating
add to favorites
×
Save as Personal and add changes to this tab that will be seen only by you. Learn more ›
×
You can save this tab as Personal to edit and correct it or add notes. All changes will be seen only by you. Learn more »
launch autoscroll
font size
0
reset
guitar tuner
edit
Autoscroll
slow
fast
+/-
esc
set tempo
stop
Author
-----------------------------------------------------------------------------
			Are We All Forgotten – Paper Route
-----------------------------------------------------------------------------

Tabbed By : ryan s
e-mail:

Tuning:

	(0:25)tens
G|---------------------------------------------------------------------------|
D|---------------------------------------------------------------------------|
A|--88-88-00-00-55-55-00-000--88-88-00-00-1010-1010-77-777-------------------|
E|---------------------------------------------------------------------------|

	(0:37)twelves and tens
G|---------------------------------------------------------------------------|
D|---------------------------------------------------------------------------|
A|-88-88-88-88-1212-1212-1010-1010--55-55-55-55-1212-1212-1010-1010----------|
E|---------------------------------------------------------------------------|

	(0:50)play twice.
G|---------------------------------------------------------------------------|
D|---------------------------------------------------------------------------|
A|-8(x16)-0(x16)-3(x16)-7(x16)-----------------------------------------------|
E|---------------------------------------------------------------------------|

	(1:15)
G|---------------------------------------------------------------------------|
D|---------------------------------------------------------------------------|
A|--88-88-00-00-55-55-00-000--88-88-00-00-1010-1010-77-777-------------------|
E|---------------------------------------------------------------------------|

	rest

	(1:41)play twice
G|---------------------------------------------------------------------------|
D|---------------------------------------------------------------------------|
A|-8(x16)-0(x16)-3(x16)-7(x16)-----------------------------------------------|
E|---------------------------------------------------------------------------|

	(2:06)fifteens, fourteens
G|---------------------------------------------------------------------------|
D|---------------------------------------------------------------------------|
A|-888-151515-1414-101010-888888-00000000-00-22-33-55-33333333-77-55-33-22---|
E|---------------------------------------------------------------------------|

G|---------------------------------------------------------------------------|
D|---------------------------------------------------------------------------|
A|-7(x16)--------------------------------------------------------------------|
E|---------------------------------------------------------------------------|

G|---------------------------------------------------------------------------|
D|---------------------------------------------------------------------------|
A|-888-151515-1414-101010-888888-00000000-00-22-33-55-33333333-77-55-33-22---|
E|---------------------------------------------------------------------------|

G|---------------------------------------------------------------------------|
D|---------------------------------------------------------------------------|
A|-77777777/19---------------------------------------------------------------|
E|---------------------------------------------------------------------------|

	Rest

	(2:56)
G|---------------------------------------------------------------------------|
D|---------------------------------------------------------------------------|
A|-8(x16)-0(x16)-3(x16)-7(x16)-----------------------------------------------|
E|---------------------------------------------------------------------------|

G|---------------------------------------------------------------------------|
D|---------------------------------------------------------------------------|
A|---------------------------------------------------------------------------|
E|---------------------------------------------------------------------------|

| /  slide up
| \  slide down
| h  hammer-on
| p  pull-off
| ~  vibrato
| +  harmonic
| x  Mute note
===============================================================================

            
            
Suggest correction
Creating personal tab
Creating personal tab
You can edit any tab online and save it as your Personal.

You can edit, replace or remove any tab part or add personal notes – all changes will be seen only by you.

Personal tabs can be accessed anytime from any device, even offline.
Learn more »
Give kudos to tab author, rate the tab!
1 2 3 4 5
comments
print report bad tab
3 comments total.
0 reply
spoop101 10 Aug 16, 2009 11:50 AM

thank you so much for this tab! i absolutely love this song and this helped me figure out the chords

0 reply
dancelikedavid 10 Sep 16, 2009 04:49 PM

what are the chords??

0 reply
PuNkRocKeR558 102 Nov 14, 2009 06:10 PM

If you could please figure out a guitar tab, that would be fantastic. This is my favorite song. I'll go ahead and try figure out the guitar chords based off the bass notes. Thanks!

guest
You may want to rate the tab now too:
select rating
Wanna post a correction for this tab? Suggest correction