Oops, an error
Loading. Please wait.

Paradox - Project Love Song bass

248 views 1 this week
no commentswrite comment
1 2 3 4 5
3 more votes to show rating
add to favorites
×
Save as Personal and add changes to this tab that will be seen only by you. Learn more ›
×
You can save this tab as Personal to edit and correct it or add notes. All changes will be seen only by you. Learn more »
launch autoscroll
font size
0
reset
guitar tuner
edit
Autoscroll
slow
fast
+/-
esc
set tempo
stop
Author
Difficulty
Paradox - Project Love Song

This song can be heard on www.myspace.com/dreckon

Come in at the end of the second bar then continue with 
the verse as normal.

Intro:
G---------------|
D-5-5-5-3-3h4p3-|
A---------------|  x1
E---------------|

Verse:
G---------------------------------------------------|
D-------------------------------3-----5-5-5-3-3h4p3-|
A-----5---3-5-----5-3-----5-5-5---3-5---------------|  x2
E-5-5---5-----3-3-----5-3---------------------------|

Chorus:
G---------------------------------------------------------|
D-3-0-3--0-3-3------------------------------5-5-5-3-3h4p3-|
A---------------0-3-0--3-0-0--3-1-3--0-1-3----------------|  x3
E---------------------------------------------------------|

G-----------------------------------------------------------|
D-3-0-3--0-0-3------------------------------555-333-555-333-|
A---------------0-3-0--3-0-0--3-1-3--0-1-3------------------|
E-----------------------------------------------------------|

G-------------------|
D-555-333-555555555-|
A-------------------|  x1
E-------------------|

Verse:
G---------------------------------------------------|
D-------------------------------3-----5-5-5-3-3h4p3-|
A-----5---3-5-----5-3-----5-5-5---3-5---------------|  x6
E-5-5---5-----3-3-----5-3---------------------------|

Chorus:
G---------------------------------------------------------|
D-3-0-3--0-3-3------------------------------5-5-5-3-3h4p3-|
A---------------0-3-0--3-0-0--3-1-3--0-1-3----------------|  x3
E---------------------------------------------------------|

G-----------------------------------------------------------|
D-3-0-3--0-0-3------------------------------555-333-555-333-|
A---------------0-3-0--3-0-0--3-1-3--0-1-3------------------|
E-----------------------------------------------------------|

G-------------------|
D-555-333-555555555-|
A-------------------|  x1
E-------------------|

Solo:
G---------------------------------------------------|
D-------------------------------3-----5-5-5-3-3h4p3-|
A-----5---3-5-----5-3-----5-5-5---3-5---------------|  x1
E-5-5---5-----3-3-----5-3---------------------------|

Note that the second line of the solo below has a note
difference to the two other parts.
G---------------------------------------------------|
D-------------------------------3-----5-5-5-3-3h4p3-|
A-----5---3-5-----5-3---3-5-5-5---3-5---------------|  x1
E-5-5---5-----3-3-----5-----------------------------|

G---------------------------------------------------|
D-------------------------------3-----5-5-5-3-3h4p3-|
A-----5---3-5-----5-3-----5-5-5---3-5---------------|  x6
E-5-5---5-----3-3-----5-3---------------------------|

Chorus:
G---------------------------------------------------------|
D-3-0-3--0-3-3------------------------------5-5-5-3-3h4p3-|
A---------------0-3-0--3-0-0--3-1-3--0-1-3----------------|  x3
E---------------------------------------------------------|

G-----------------------------------------------------------|
D-3-0-3--0-0-3------------------------------555-333-555-333-|
A---------------0-3-0--3-0-0--3-1-3--0-1-3------------------|
E-----------------------------------------------------------|

G-------------------|
D-555-333-555555555-|
A-------------------|  x1
E-------------------|

Outro:
G-------------------------------------------------------|
D-------------5-5-5-3-3h4p3-------------5-5-5-3-3h4p3---|
A---------5-------------------------5-------------------|  x1
E-5---3---------------------5---3---------------------5-|

Let the very last note ring.

That's the lot.

            
            
Suggest correction
Creating personal tab
Creating personal tab
You can edit any tab online and save it as your Personal.

You can edit, replace or remove any tab part or add personal notes – all changes will be seen only by you.

Personal tabs can be accessed anytime from any device, even offline.
Learn more »
Give kudos to tab author, rate the tab!
1 2 3 4 5
comments
print report bad tab
guest
You may want to rate the tab now too:
select rating
Wanna post a correction for this tab? Suggest correction