Oops, an error
Loading. Please wait.

Razor Red Noise - Walk With The Dead tab

57 views 3 this week
no commentswrite comment
1 2 3 4 5
3 more votes to show rating
add to favorites
×
Save as Personal and add changes to this tab that will be seen only by you. Learn more ›
×
You can save this tab as Personal to edit and correct it or add notes. All changes will be seen only by you. Learn more »
launch autoscroll
font size
0
reset
how to read this tab
guitar tuner
edit
Autoscroll
slow
fast
+/-
esc
set tempo
stop
-------------------------------------------------------------------------------
                   WALK WITH THE DEAD - Razor Red Noise
-------------------------------------------------------------------------------
Tabbed by: tabs312
E-mail:
Guitar Type: Electric Distored Guitar (You can buy distortion pedals and electric guitars at Amazon or Ebay)
Tuning: Drop E - E B E A C# F#

Intro:
  |----------------    -------------|
  |----------------    -------------|
  |---------------- x2 -------------|
  |---4-------5----    -------------|
  |--2-------2-----    -------------|
  |-2-------2------    --2-2-2-2----|
PM 

Verse:
  |---------------------------------------------------------------------------|
  |---------------------------------------------------------------------------|
  |---------------------------------------------------------------------------| x2
  |-222---------222---------300---------222---------222-----3--300------------|
  |-222---------222---------300---------222---------222-----3--300------------|
  |-222---------222---------300---------222---------222-----3--300------------|
PM 

Chorus Part 1:
  |---------------------------------------------------------------------------|
  |---------------------------------------------------------------------------|
  |---------------------------------------------------------------------------|
  |--22222------------------------77777--------------------10-10-10-10-10-----|
  |--22222------------------------77777--------------------10-10-10-10-10-----|
  |--22222------------------------77777--------------------10-10-10-10-10-----|
PM 

Chorus Part 2 (1):
  |---------------------------------------------------------------------------|
  |---------------------------------------------------------------------------|
  |---------------------------------------------------------------------------|
  |-9-910-10-10-10-000--------------------------------------------------------|
  |-9-910-10-10-10-000--------------------------------------------------------|
  |-9-910-10-10-10-000--------------------------------------------------------|
PM 

Repeat Part 1.
Chorus Part 2 (2):
  |---------------------------------------------------------------------------|
  |---------------------------------------------------------------------------|
  |---------------------------------------------------------------------------|
  |-9-910-10-10-10-300--------------------------------------------------------|
  |-9-910-10-10-10-300--------------------------------------------------------|
  |-9-910-10-10-10-300--------------------------------------------------------|
PM 

Repeat Verse and after repeat Chorus (All parts)
Bridge Part 1:
  |---------------------------|
  |---------------------------|
  |---------------------------| x4
  |-222-2-------2---3---00000-|
  |-222-2-------2---3---00000-|
  |-222-2-------2---3---00000-|
PM  xx                  xxxxx

Brdge Part 2:
  |---|
  |---|
  |---| x9
  |-2-|
  |-2-|
  |-2-|
PM 

Repeat Chorus (All parts) two times.
Outro don't have guitar.
I recomment you all to hear the song at: http://music.razorrednoise.com/track/walk-with-the-dead



************************************

| /   slide up
| \   slide down
| h   hammer-on
| p   pull-off
| ~   vibrato
| +   harmonic
| x   Mute note
| b   Bend
| pb  Pre-bend
| br  Bend release
| pbr Pre-bend release
| brb Bend release bend
PM = Palm Mute

************************************

            
            
Suggest correction
Creating personal tab
Creating personal tab
You can edit any tab online and save it as your Personal.

You can edit, replace or remove any tab part or add personal notes – all changes will be seen only by you.

Personal tabs can be accessed anytime from any device, even offline.
Learn more »
Give kudos to tab author, rate the tab!
1 2 3 4 5
comments
print report bad tab
guest
You may want to rate the tab now too:
select rating
Wanna post a correction for this tab? Suggest correction