Oops, an error
Loading. Please wait.

Republic Of Astralaya - Sepercik Anugerah tab

version 1
version 1

Whole song

  • ASCII tab version of Sepercik Anugerah, referred f... Show more

Interactive

13 views 1 this week
no commentswrite comment
1 2 3 4 5
3 more votes to show rating
add to favorites
×
Save as Personal and add changes to this tab that will be seen only by you. Learn more ›
×
You can save this tab as Personal to edit and correct it or add notes. All changes will be seen only by you. Learn more »
launch autoscroll
font size
0
reset
how to read this tab
guitar tuner
edit
Autoscroll
slow
fast
+/-
esc
set tempo
stop
Author
Difficulty
About this tab version
ASCII tab version of Sepercik Anugerah, referred from Guitar Pro version. Including chords, note timing, and lyrics for timing. Was this info helpful? Yes No
Song: Sepercik Anugerah
Artist: Republic of Astralaya feat. Hatsune Miku

Standard Tuning (EADGBE)
Easy Listening
3/4 Beat (Tempo: 90)

Use Nylon Guitar with fingers (no plectrum/pick)
Let ring throughout

[Intro]
   D5          D             Cadd9       Em7/B         D                         G6          Asus4
   E   S E   S S S E   E     E   S S E   E   S S E     E   S E   S S S E   E     E   S S E   E   E   E
e|-5-----------3p2---------|-0-------0---------------|-------------3p2---------|---------0---------------|
B|-------3---3-----3-------|-------3-----3-------3---|-3-----3---3-----3-------|-3-----3-----3---2-------|
G|-----2---------------2---|-----0-------------0-----|-----2---------------2---|-----0-------2-------2---|
D|-0-----------0-----------|-----------------2-------|-0-----------0-----------|-------------------------|
A|-------------------------|-3-----------2-----------|-------------------------|-------------0-----------|
E|-------------------------|-------------------------|-------------------------|-3-----------------------|

   D           D             Cadd9       Em7/B         D                         G6          Asus4
   E   S E   S S S E   E     E   S S E   E   S S E     E   S E   S S S E   E     E   S S E   E   E   E
e|-2-----------3p2---------|-0-------0---------------|-------------3p2---------|---------0---------------|
B|-------3---3-----3-------|-------3-----3-------3---|-3-----3---3-----3-------|-3-----3-----3---2-------|
G|-----2---------------2---|-----0-------------0-----|-----2---------------2---|-----0-------2-------2---|
D|-0-----------0-----------|-----------------2-------|-0-----------0-----------|-------------------------|
A|-------------------------|-3-----------2-----------|-------------------------|-------------0-----------|
E|-------------------------|-------------------------|-------------------------|-3-----------------------|

[Verse 1]
             Ku menatap birunya langit...                      Di atas langit di sana...
   D           D             Cadd9       Em7/B         D                         G6          Asus4
   E   S E   S S S E   E     E   S S E   E   S S E     E   S S E   E   S S E     E   S S E   E   E   E
e|-2-----------3p2---------|-0-------0---------------|---------0-----------0---|---------0---------------|
B|-------3---3-----3-------|-------3-----3-------3---|-3-----3-----3-----3-----|-3-----3-----3---2-------|
G|-----2---------------2---|-----0-------------0-----|-----2-----------2-------|-----0-------2-------2---|
D|-0-----------0-----------|-----------------2-------|-0-----------0-----------|-------------------------|
A|-------------------------|-3-----------2-----------|-------------------------|-------------0-----------|
E|-------------------------|-------------------------|-------------------------|-3-----------------------|

           Terduduk menunggu seorang...            Yang telah kukenal lama...
   D           D             Cadd9       Em7/B         D                         G6          Asus4
   E   S E   S S S E   E     E   S S E   E   S S E     E   S S E   E   S S E     E   S S E   E   E   E
e|-2-----------3p2---------|-0-------0---------------|---------0-----------0---|---------0---------------|
B|-------3---3-----3-------|-------3-----3-------3---|-3-----3-----3-----3-----|-3-----3-----3---2-------|
G|-----2---------------2---|-----0-------------0-----|-----2-----------2-------|-----0-------2-------2---|
D|-0-----------0-----------|-----------------2-------|-0-----------0-----------|-------------------------|
A|-------------------------|-3-----------2-----------|-------------------------|-------------0-----------|
E|-------------------------|-------------------------|-------------------------|-3-----------------------|

[Bridge 1]
       Teringat sebuah bayangan lama....           Melintas di benak pikiranku....
   Dadd9/B                   D/A         A             Dsus2/G
   E   S E   S E   E   E     E   S E   S E   S S E     E   S E   S S S E   E     E   S E   S S S E   E
e|-------------0-----------|-----------------0-------|-------------0-----------|-------------0-----------|
B|-3---------3-----3-------|-3---------3-2-----2-----|-3---------3---3---------|-3---------3---3---------|
G|-------2-------------2---|-------2-------------2---|-------2---------2-------|-------2---------2-------|
D|-----4-------------------|-----4-------------------|-----0---------------0---|-----0-------------------|
A|-2-----------2-----------|-0-----------0-----------|-------------------------|---------------------0---|
E|-------------------------|-------------------------|-3-----------3-----------|-3-----------3-----------|

   Kisah sekawan anak manusia....                Mengarungi indahnya dunia....
   Dadd9/B                   D/A         F#m/A             Dsus2/G
   E   S E   S E   E   E     E   S E   S E   S S E     E   S E   S S S E   E     E   S E   S Q
e|-------------0-----------|-----------------2-------|-------------0-----------|-------------0-----------|
B|-3---------3-----3-------|-3---------3-2-----2-----|-3---------3---3---------|-3---------3-3-----------|
G|-------2-------------2---|-------2-------------2---|-------2---------2-------|-------2-----------------|
D|-----4-------------------|-----4-------------------|-----0---------------0---|-----0-------------------|
A|-2-----------2-----------|-0-----------0-----------|-------------------------|-------------------------|
E|-------------------------|-------------------------|-3-----------3-----------|-3-----------3-----------|

[Chorus 1]
  Inikah sepercik anugerah....                   Yang ku alami bersama denganmu....
   D5                        G                         Bm7         A7            G           A
   E   S E   S E   S S E     E   S E   S E   E   E     E   S S E   E   S S E     E   S S S S E   E   E   
e|-5-----------5-------2---|-3-----------3---2---0---|---------2---0-------0---|---------0-----------0---|
B|-------3-----------3-----|-------3-----------------|-3-----3-----2-----2-----|-3-----3---3-2---3-------|
G|-----2-----2-----2-------|-----0-----0-------------|-2---2-----------0-------|-0-----------2---2-------|
D|-0-----------0-----------|-------------------------|-------------------------|-----0-------------------|
A|-------------------------|-------------------------|-2-----------0-----------|-------------0-----------|
E|-------------------------|-3-----------3-----------|-------------------------|-3-----------------------|

  Inikah yang disebut surga....                  Ketika diriku tak ingin mengakhirinya....
   D5                        G           Bm7           Cadd9       Em7/B         Gm6/A#      Asus4
   E   S E   S E   S S E     E   S S E   E   S S S S   S S S S S S S S S S S S   S S S S S S E   E   E   
e|-5-----------5-------2---|-3-----2-0-----------0---|-------0-----------0-----|-------0-----------------|
B|-------3-----------3-----|-------------3-----3---3-|-----3---3-------3---3---|-----3---3---3---2-------|
G|-----2-----2-----2-------|-----0-----------0-------|---0-------0---0-------0-|---0-------0-2-------2---|
D|-0-----------0-----------|-------------------------|-------------------------|-------------------------|
A|-------------------------|-------------2-----------|-3-----------2-----------|-1-----------0-----------|
E|-------------------------|-3-----------------------|-------------------------|-------------------------|

   Dsus2                    
   S S S S S S Q
e|-------0-----------------|
B|-----3---3---7+----------|
G|---2-------2-7+----------|
D|-0-----------------------|
A|-------------------------|
E|-------------------------|

[Piano Intro]
   D5          D             Cadd9       Em7/B         D                         G6          Asus4
   E   S E   S S S E   E     E   S S E   E   S S E     E   S E   S S S E   E     E   S S E   E   E   E
e|-5-----------3p2---------|-0-------0---------------|-------------3p2---------|---------0---------------|
B|-------3---3-----3-------|-------3-----3-------3---|-3-----3---3-----3-------|-3-----3-----3---2-------|
G|-----2---------------2---|-----0-------------0-----|-----2---------------2---|-----0-------2-------2---|
D|-0-----------0-----------|-----------------2-------|-0-----------0-----------|-------------------------|
A|-------------------------|-3-----------2-----------|-------------------------|-------------0-----------|
E|-------------------------|-------------------------|-------------------------|-3-----------------------|

   D           D             Cadd9       Em7/B         D                         G6          Asus4
   E   S E   S S S E   E     E   S S E   E   S S E     E   S E   S S S E   E     E   S S E   E   E   E
e|-2-----------3p2---------|-0-------0---------------|-------------3p2---------|---------0---------------|
B|-------3---3-----3-------|-------3-----3-------3---|-3-----3---3-----3-------|-3-----3-----3---2-------|
G|-----2---------------2---|-----0-------------0-----|-----2---------------2---|-----0-------2-------2---|
D|-0-----------0-----------|-----------------2-------|-0-----------0-----------|-------------------------|
A|-------------------------|-3-----------2-----------|-------------------------|-------------0-----------|
E|-------------------------|-------------------------|-------------------------|-3-----------------------|

[Verse 2]
             Berawal dari sekawan anak...                      Yang s'lalu bermain bersama...
   D           D             Cadd9       Em7/B         D                         G6          Asus4
   E   S E   S S S E   E     E   S S E   E   S S E     E   S S E   E   S S E     E   S S E   E   E   E
e|-2-----------3p2---------|-0-------0---------------|---------0-----------0---|---------0---------------|
B|-------3---3-----3-------|-------3-----3-------3---|-3-----3-----3-----3-----|-3-----3-----3---2-------|
G|-----2---------------2---|-----0-------------0-----|-----2-----------2-------|-----0-------2-------2---|
D|-0-----------0-----------|-----------------2-------|-0-----------0-----------|-------------------------|
A|-------------------------|-3-----------2-----------|-------------------------|-------------0-----------|
E|-------------------------|-------------------------|-------------------------|-3-----------------------|

           Berbagi cita dan cerita...              Melupakan kejamnya dunia...
   D           D             Cadd9       Em7/B         D                         G6          Asus4
   E   S E   S S S E   E     E   S S E   E   S S E     E   S S E   E   S S E     E   S S E   E   E   E
e|-2-----------3p2---------|-0-------0---------------|---------0-----------0---|---------0---------------|
B|-------3---3-----3-------|-------3-----3-------3---|-3-----3-----3-----3-----|-3-----3-----3---2-------|
G|-----2---------------2---|-----0-------------0-----|-----2-----------2-------|-----0-------2-------2---|
D|-0-----------0-----------|-----------------2-------|-0-----------0-----------|-------------------------|
A|-------------------------|-3-----------2-----------|-------------------------|-------------0-----------|
E|-------------------------|-------------------------|-------------------------|-3-----------------------|

[Bridge 2]
       Ku rasakan canda dan tawa....             Membuat dunia kembali ceria....
   Dadd9/B                   D/A         A             Dsus2/G
   E   S E   S E   E   E     E   S E   S E   S S E     E   S E   S S S E   E     E   S E   S S S E   E
e|-------------0-----------|-----------------0-------|-------------0-----------|-------------0-----------|
B|-3---------3-----3-------|-3---------3-2-----2-----|-3---------3---3---------|-3---------3---3---------|
G|-------2-------------2---|-------2-------------2---|-------2---------2-------|-------2---------2-------|
D|-----4-------------------|-----4-------------------|-----0---------------0---|-----0-------------------|
A|-2-----------2-----------|-0-----------0-----------|-------------------------|---------------------0---|
E|-------------------------|-------------------------|-3-----------3-----------|-3-----------3-----------|

   Ku rasakan sedih dan pilu....                'tuk lupakan dan lanjut berjalan....
   Dadd9/B                   D/A         F#m/A             Dsus2/G
   E   S E   S E   E   E     E   S E   S E   S S E     E   S E   S S S E   E     E   S E   S Q
e|-------------0-----------|-----------------2-------|-------------0-----------|-------------0-----------|
B|-3---------3-----3-------|-3---------3-2-----2-----|-3---------3---3---------|-3---------3-------------|
G|-------2-------------2---|-------2-------------2---|-------2---------2-------|-------2-----------------|
D|-----4-------------------|-----4-------------------|-----0---------------0---|-----0-------------------|
A|-2-----------2-----------|-0-----------0-----------|-------------------------|-------------------------|
E|-------------------------|-------------------------|-3-----------3-----------|-3-----------------------|

[Chorus 2]
(Brush stroking)
  Inikah sepercik anugerah....                   Yang ku alami bersama denganmu....
   D                         G                         Bm7         A             G           A7
   E   S E   S E   S S E     E   S E   S E   S S E     E   S S E   E   S S E     E   S S E   E   S S E   
e|-2---2-2---2-2---2-2-2---|-3---3-3---3-3---3-3-3---|-2---2-2-2---0---0-0-0---|-3---3-3-3---0---0-0-0---|
B|-3---3-3---3-3---3-3-3---|-3---3-3---3-3---3-3-3---|-3---3-3-3---2---2-2-2---|-3---3-3-3---2---2-2-2---|
G|-2---2-2---2-2---2-2-2---|-0---0-0---0-0---0-0-0---|-2---2-2-2---2---2-2-2---|-0---0-0-0---0---0-0-0---|
D|-0---0-0---0-0---0-0-0---|-0---0-0---0-0---0-0-0---|-4---4-4-4---2---2-2-2---|-0---0-0-0---2---2-2-2---|
A|-------------------------|-2---2-2---2-2---2-2-2---|-2---2-2-2---0---0-0-0---|-2---2-2-2---0---0-0-0---|
E|-------------------------|-3---3-3---3-3---3-3-3---|-------------------------|-3---3-3-3---------------|

  Inikah yang disebut surga....                  Ketika dirimu 'kan ku kenang s'lalu....
   D                         G           Bm7           Cadd9       G6/B          A#          A
   E   S E   S E   S S E     E   S S E   E   S S S     E   S S E   E   S S E     E   S S E   E   S S E   
e|-2---2-2---2-2---2-2-2---|-3---3-3-3---2---2-2-2---|-0---0-0-0---0---0-0-0---|-1---1-1-1---0---0-0-0---|
B|-3---3-3---3-3---3-3-3---|-3---3-3-3---3---3-3-3---|-3---3-3-3---2---2-2-2---|-3---3-3-3---2---2-2-2---|
G|-2---2-2---2-2---2-2-2---|-0---0-0-0---2---2-2-2---|-0---0-0-0---0---0-0-0---|-3---3-3-3---2---2-2-2---|
D|-0---0-0---0-0---0-0-0---|-0---0-0-0---4---4-4-4---|-2---2-2-2---2---2-2-2---|-3---3-3-3---2---2-2-2---|
A|-------------------------|-2---2-2-2---2---2-2-2---|-3---3-3-3---2---2-2-2---|-1---1-1-1---0---0-0-0---|
E|-------------------------|-3---3-3-3---------------|-------------------------|-------------------------|

  Inikah sepercik anugerah....                   Yang ku alami bersama denganmu....
   D                         G                         Bm7         A             G           A7
   E   S E   S E   S S E     E   S E   S E   S S E     E   S S E   E   S S E     E   S S E   E   S S E   
e|-2---2-2---2-2---2-2-2---|-3---3-3---3-3---3-3-3---|-2---2-2-2---0---0-0-0---|-3---3-3-3---0---0-0-0---|
B|-3---3-3---3-3---3-3-3---|-3---3-3---3-3---3-3-3---|-3---3-3-3---2---2-2-2---|-3---3-3-3---2---2-2-2---|
G|-2---2-2---2-2---2-2-2---|-0---0-0---0-0---0-0-0---|-2---2-2-2---2---2-2-2---|-0---0-0-0---0---0-0-0---|
D|-0---0-0---0-0---0-0-0---|-0---0-0---0-0---0-0-0---|-4---4-4-4---2---2-2-2---|-0---0-0-0---2---2-2-2---|
A|-------------------------|-2---2-2---2-2---2-2-2---|-2---2-2-2---0---0-0-0---|-2---2-2-2---0---0-0-0---|
E|-------------------------|-3---3-3---3-3---3-3-3---|-------------------------|-3---3-3-3---------------|

  Inikah yang disebut surga....                  Ketika diriku tak ingin mengakhirinya....
   D                         G           Bm7           Cadd9       G6/B          A#          A
   E   S E   S E   S S E     E   S S E   E   S S S     E   S S E   E   S S E     E   S S E   E   S S E   
e|-2---2-2---2-2---2-2-2---|-3---3-3-3---2---2-2-2---|-0---0-0-0---0---0-0-0---|-1---1-1-1---0---0-0-0---|
B|-3---3-3---3-3---3-3-3---|-3---3-3-3---3---3-3-3---|-3---3-3-3---2---2-2-2---|-3---3-3-3---2---2-2-2---|
G|-2---2-2---2-2---2-2-2---|-0---0-0-0---2---2-2-2---|-0---0-0-0---0---0-0-0---|-3---3-3-3---2---2-2-2---|
D|-0---0-0---0-0---0-0-0---|-0---0-0-0---4---4-4-4---|-2---2-2-2---2---2-2-2---|-3---3-3-3---2---2-2-2---|
A|-------------------------|-2---2-2-2---2---2-2-2---|-3---3-3-3---2---2-2-2---|-1---1-1-1---0---0-0-0---|
E|-------------------------|-3---3-3-3---------------|-------------------------|-------------------------|

[Bridge 3]
                   Dan waktu pun datang pisahkan kita...
   G                         G                         D                         A
   E   S E   S E   S S E     E   S E   S E   S S E     E   S E   S E   S S E     E   S E   S E   S S E   
e|-3---3-3---3-3---3-3-3---|-3---3-3---3-3---3-3-3---|-2---2-2---2-2---2-2-2---|-0---0-0---0-0---0-0-0---|
B|-3---3-3---3-3---3-3-3---|-3---3-3---3-3---3-3-3---|-3---3-3---3-3---3-3-3---|-2---2-2---2-2---2-2-2---|
G|-0---0-0---0-0---0-0-0---|-0---0-0---0-0---0-0-0---|-2---2-2---2-2---2-2-2---|-2---2-2---2-2---2-2-2---|
D|-0---0-0---0-0---0-0-0---|-0---0-0---0-0---0-0-0---|-0---0-0---0-0---0-0-0---|-2---2-2---2-2---2-2-2---|
A|-2---2-2---2-2---2-2-2---|-2---2-2---2-2---2-2-2---|-------------------------|-0---0-0---0-0---0-0-0---|
E|-3---3-3---3-3---3-3-3---|-3---3-3---3-3---3-3-3---|-------------------------|-------------------------|

                   Ku ingin kita tetap seperti dulu...
   G                         G                         Bm7                       Bm7
   E   S E   S E   S S E     E   S E   S E   S S E     E   S E   S E   S S E     E   S E   S E   S S E   
e|-3---3-3---3-3---3-3-3---|-3---3-3---3-3---3-3-3---|-2---2-2---2-2---2-2-2---|-2---2-2---2-2---2-2-2---|
B|-3---3-3---3-3---3-3-3---|-3---3-3---3-3---3-3-3---|-3---3-3---3-3---3-3-3---|-3---3-3---3-3---3-3-3---|
G|-0---0-0---0-0---0-0-0---|-0---0-0---0-0---0-0-0---|-2---2-2---2-2---2-2-2---|-2---2-2---2-2---2-2-2---|
D|-0---0-0---0-0---0-0-0---|-0---0-0---0-0---0-0-0---|-4---4-4---4-4---4-4-4---|-4---4-4---4-4---4-4-4---|
A|-2---2-2---2-2---2-2-2---|-2---2-2---2-2---2-2-2---|-2---2-2---2-2---2-2-2---|-2---2-2---2-2---2-2-2---|
E|-3---3-3---3-3---3-3-3---|-3---3-3---3-3---3-3-3---|-------------------------|-------------------------|

                   Kita mengukir janji kita di prasasti kita...                                  Suatu...
   G                         G                         D                         A
   E   S E   S E   S S E     E   S E   S E   S S E     E   S E   S E   S S E     E   S E   S E   S S E   
e|-3---3-3---3-3---3-3-3---|-3---3-3---3-3---3-3-3---|-2---2-2---2-2---2-2-2---|-0---0-0---0-0---0-0-0---|
B|-3---3-3---3-3---3-3-3---|-3---3-3---3-3---3-3-3---|-3---3-3---3-3---3-3-3---|-2---2-2---2-2---2-2-2---|
G|-0---0-0---0-0---0-0-0---|-0---0-0---0-0---0-0-0---|-2---2-2---2-2---2-2-2---|-2---2-2---2-2---2-2-2---|
D|-0---0-0---0-0---0-0-0---|-0---0-0---0-0---0-0-0---|-0---0-0---0-0---0-0-0---|-2---2-2---2-2---2-2-2---|
A|-2---2-2---2-2---2-2-2---|-2---2-2---2-2---2-2-2---|-------------------------|-0---0-0---0-0---0-0-0---|
E|-3---3-3---3-3---3-3-3---|-3---3-3---3-3---3-3-3---|-------------------------|-------------------------|

   ... saat kita pasti bertemu kembali...
   Em          F#m           G           Bm7           A
   E   S S E   E   S S E     E   S S E   E   S S E     E   S E   S E   S S E     E   S E   S H
e|-0---0-0-0---2---2-2-2---|-3---3-3-3---2---2-2-2---|-0---0-0---0-0---0-0-0---|-0---0-0---0-0-----------|
B|-0---0-0-0---2---2-2-2---|-3---3-3-3---3---3-3-3---|-2---2-2---2-2---2-2-2---|-2---2-2---2-2-----------|
G|-0---0-0-0---2---2-2-2---|-0---0-0-0---2---2-2-2---|-2---2-2---2-2---2-2-2---|-2---2-2---2-2-----------|
D|-2---2-2-2---4---4-4-4---|-0---0-0-0---4---4-4-4---|-2---2-2---2-2---2-2-2---|-2---2-2---2-2-----------|
A|-2---2-2-2---4---4-4-4---|-2---2-2-2---2---2-2-2---|-0---0-0---0-0---0-0-0---|-0---0-0---0-0-----------|
E|-0---0-0-0---2---2-2-2---|-3---3-3-3---------------|-------------------------|-------------------------|

[Chorus 3]
  Inikah sepercik anugerah....                   Yang ku alami selama denganmu....
   D                         G                         Bm7         A             G           A7
   E   S E   S E   S S E     E   S E   S E   S S E     E   S S E   E   S S E     E   S S E   E   S S E   
e|-2---2-2---2-2---2-2-2---|-3---3-3---3-3---3-3-3---|-2---2-2-2---0---0-0-0---|-3---3-3-3---0---0-0-0---|
B|-3---3-3---3-3---3-3-3---|-3---3-3---3-3---3-3-3---|-3---3-3-3---2---2-2-2---|-3---3-3-3---2---2-2-2---|
G|-2---2-2---2-2---2-2-2---|-0---0-0---0-0---0-0-0---|-2---2-2-2---2---2-2-2---|-0---0-0-0---0---0-0-0---|
D|-0---0-0---0-0---0-0-0---|-0---0-0---0-0---0-0-0---|-4---4-4-4---2---2-2-2---|-0---0-0-0---2---2-2-2---|
A|-------------------------|-2---2-2---2-2---2-2-2---|-2---2-2-2---0---0-0-0---|-2---2-2-2---0---0-0-0---|
E|-------------------------|-3---3-3---3-3---3-3-3---|-------------------------|-3---3-3-3---------------|

  Inikah yang disebut surga....                  Ketika diriku kembali ke sana....
   D                         G           Bm7           Cadd9       G6/B          A#          A
   E   S E   S E   S S E     E   S S E   E   S S S     E   S S E   E   S S E     E   S S E   E   S S E   
e|-2---2-2---2-2---2-2-2---|-3---3-3-3---2---2-2-2---|-0---0-0-0---0---0-0-0---|-1---1-1-1---0---0-0-0---|
B|-3---3-3---3-3---3-3-3---|-3---3-3-3---3---3-3-3---|-3---3-3-3---2---2-2-2---|-3---3-3-3---2---2-2-2---|
G|-2---2-2---2-2---2-2-2---|-0---0-0-0---2---2-2-2---|-0---0-0-0---0---0-0-0---|-3---3-3-3---2---2-2-2---|
D|-0---0-0---0-0---0-0-0---|-0---0-0-0---4---4-4-4---|-2---2-2-2---2---2-2-2---|-3---3-3-3---2---2-2-2---|
A|-------------------------|-2---2-2-2---2---2-2-2---|-3---3-3-3---2---2-2-2---|-1---1-1-1---0---0-0-0---|
E|-------------------------|-3---3-3-3---------------|-------------------------|-------------------------|

  Inikah sepercik anugerah....                   Yang ku rasakan bertamu kembali....
   D                         G                         Bm7         A             G           A7
   E   S E   S E   S S E     E   S E   S E   S S E     E   S S E   E   S S E     E   S S E   E   S S E   
e|-2---2-2---2-2---2-2-2---|-3---3-3---3-3---3-3-3---|-2---2-2-2---0---0-0-0---|-3---3-3-3---0---0-0-0---|
B|-3---3-3---3-3---3-3-3---|-3---3-3---3-3---3-3-3---|-3---3-3-3---2---2-2-2---|-3---3-3-3---2---2-2-2---|
G|-2---2-2---2-2---2-2-2---|-0---0-0---0-0---0-0-0---|-2---2-2-2---2---2-2-2---|-0---0-0-0---0---0-0-0---|
D|-0---0-0---0-0---0-0-0---|-0---0-0---0-0---0-0-0---|-4---4-4-4---2---2-2-2---|-0---0-0-0---2---2-2-2---|
A|-------------------------|-2---2-2---2-2---2-2-2---|-2---2-2-2---0---0-0-0---|-2---2-2-2---0---0-0-0---|
E|-------------------------|-3---3-3---3-3---3-3-3---|-------------------------|-3---3-3-3---------------|

  Inikah yang disebut surga....                  Ketika diriku tak ingin melupakannya....
   D                         G           Bm7           Cadd9       G6/B          A#          A
   E   S E   S E   S S E     E   S S E   E   S S S     E   S S E   E   S S E     E   S S E   E   S S E   
e|-2---2-2---2-2---2-2-2---|-3---3-3-3---2---2-2-2---|-0---0-0-0---0---0-0-0---|-1---1-1-1---0---0-0-0---|
B|-3---3-3---3-3---3-3-3---|-3---3-3-3---3---3-3-3---|-3---3-3-3---2---2-2-2---|-3---3-3-3---2---2-2-2---|
G|-2---2-2---2-2---2-2-2---|-0---0-0-0---2---2-2-2---|-0---0-0-0---0---0-0-0---|-3---3-3-3---2---2-2-2---|
D|-0---0-0---0-0---0-0-0---|-0---0-0-0---4---4-4-4---|-2---2-2-2---2---2-2-2---|-3---3-3-3---2---2-2-2---|
A|-------------------------|-2---2-2-2---2---2-2-2---|-3---3-3-3---2---2-2-2---|-1---1-1-1---0---0-0-0---|
E|-------------------------|-3---3-3-3---------------|-------------------------|-------------------------|

[Outro]
  (Inikah sepercik anugerah....)                   (Yang ku alami bersama denganmu....)
   D                         G                         Bm7         A             G           A7
   E   S E   S E   S S E     E   S E   S E   S S E     E   S S E   E   S S E     E   S S E   E   S S E   
e|-2---2-2---2-2---2-2-2---|-3---3-3---3-3---3-3-3---|-2---2-2-2---0---0-0-0---|-3---3-3-3---0---0-0-0---|
B|-3---3-3---3-3---3-3-3---|-3---3-3---3-3---3-3-3---|-3---3-3-3---2---2-2-2---|-3---3-3-3---2---2-2-2---|
G|-2---2-2---2-2---2-2-2---|-0---0-0---0-0---0-0-0---|-2---2-2-2---2---2-2-2---|-0---0-0-0---0---0-0-0---|
D|-0---0-0---0-0---0-0-0---|-0---0-0---0-0---0-0-0---|-4---4-4-4---2---2-2-2---|-0---0-0-0---2---2-2-2---|
A|-------------------------|-2---2-2---2-2---2-2-2---|-2---2-2-2---0---0-0-0---|-2---2-2-2---0---0-0-0---|
E|-------------------------|-3---3-3---3-3---3-3-3---|-------------------------|-3---3-3-3---------------|

  (Inikah yang disebut surga....)                  (Ketika diriku tak ingin mengakhirinya....)
   D                         G           Bm7           Cadd9       G6/B          A#          A
   E   S E   S E   S S E     E   S S E   E   S S S     E   S S E   E   S S E     E   S S E   E   S S E   
e|-2---2-2---2-2---2-2-2---|-3---3-3-3---2---2-2-2---|-0---0-0-0---0---0-0-0---|-1---1-1-1---0---0-0-0---|
B|-3---3-3---3-3---3-3-3---|-3---3-3-3---3---3-3-3---|-3---3-3-3---2---2-2-2---|-3---3-3-3---2---2-2-2---|
G|-2---2-2---2-2---2-2-2---|-0---0-0-0---2---2-2-2---|-0---0-0-0---0---0-0-0---|-3---3-3-3---2---2-2-2---|
D|-0---0-0---0-0---0-0-0---|-0---0-0-0---4---4-4-4---|-2---2-2-2---2---2-2-2---|-3---3-3-3---2---2-2-2---|
A|-------------------------|-2---2-2-2---2---2-2-2---|-3---3-3-3---2---2-2-2---|-1---1-1-1---0---0-0-0---|
E|-------------------------|-3---3-3-3---------------|-------------------------|-------------------------|

                                                                                     Jangan berakhir....
  D                          D                         D                         D
   E   S E   S E   S S E     E   S E   S E   S S E     E   S E   S E   S S E     E   S E   S E   S S E
e|-2---2-2---2-2---2-2-2---|-2---2-2---2-2---2-2-2---|-2---2-2---2-2---2-2-2---|-2---2-2---2-2---2-2-2---|
B|-3---3-3---3-3---3-3-3---|-3---3-3---3-3---3-3-3---|-3---3-3---3-3---3-3-3---|-3---3-3---3-3---3-3-3---|
G|-2---2-2---2-2---2-2-2---|-2---2-2---2-2---2-2-2---|-2---2-2---2-2---2-2-2---|-2---2-2---2-2---2-2-2---|
D|-0---0-0---0-0---0-0-0---|-0---0-0---0-0---0-0-0---|-0---0-0---0-0---0-0-0---|-0---0-0---0-0---0-0-0---|
A|-------------------------|-------------------------|-------------------------|-------------------------|
E|-------------------------|-------------------------|-------------------------|-------------------------|

   D                        
   W    
e|-2-----------------------|
B|-3-----------------------|
G|-2-----------------------|
D|-0-----------------------|
A|-------------------------|
E|-------------------------|


************************************
Note Legend:
| S     Sixteenth Note
| E     Eight Note
| Q     Quarter Note
| H     Half Note
| W     Whole Note

Guitar Technique Legends:
| h     Hammer-on
| p     Pull-off
| +     Natural Harmonics

************************************

            
            
Suggest correction
Creating personal tab
Creating personal tab
You can edit any tab online and save it as your Personal.

You can edit, replace or remove any tab part or add personal notes – all changes will be seen only by you.

Personal tabs can be accessed anytime from any device, even offline.
Learn more »
Give kudos to tab author, rate the tab!
1 2 3 4 5
comments
print report bad tab
guest
You may want to rate the tab now too:
select rating
Wanna post a correction for this tab? Suggest correction