Oops, an error
Loading. Please wait.

Rocket From The Tombs - Aint It Fun tab

2,722 views 1 this week
1 commentread comment
1 2 3 4 5
1 last vote to show rating
add to favorites
×
Save as Personal and add changes to this tab that will be seen only by you. Learn more ›
×
You can save this tab as Personal to edit and correct it or add notes. All changes will be seen only by you. Learn more »
launch autoscroll
font size
0
reset
how to read this tab
guitar tuner
edit
Autoscroll
slow
fast
+/-
esc
set tempo
stop
Author
Rocket from the Tombs - Ain't it Fun

tuning: standard

ain't it fun... a great song, dead boys and guns'n'roses covered it, but i think
this is the best version of the song...
i think peter laughner plays 1st guitar, 2nd guitar, i don't know... just play the song!

intro
|--------------------------------------------------------------------------|
|--------------------------------------------------------------------------|
|--------4-----------4-----------7-----------------------4-----------4-----|
|-----4-----4-----4-----4-----7-----7--------7--------5-----5-----5-----5--|
|--2-----------2-----------5--------------7-----7--------------------------|
|--------------------------------------5-----------3-----------3-----------|

|--------------------------------------------------------------------------------------------------|
|--------------------------------------------------------------------------------------------------|
|--------4-----------4-----------4-----------4-----------7-----------------------4-----------4-----|
|-----4-----4-----4-----4-----4-----4-----4-----4-----7-----7--------7--------5-----5-----5-----5--|
|--2-----------2-----------2-----------2-----------5--------------7-----7--------------------------|
|--------------------------------------------------------------5-----------3-----------3-----------|

|--------------------------------------------------------------------------------------------------|
|-----------------17b--r---15----15-17b-----------19p17p15-----------14-15-14----------------------|
|-----------------------------16-------------------------16--------x----------16-14h16p14-------14-|
|----------------------------------------------------------------------------------------16-14h16--|
|--------------------------------------------------------------------------------------------------|
|--------------------------------------------------------------------------------------------------|
|
|--------------------------------------------------------------------------------------------------|
|--------------------------------------------------------------------------------------------------|
|--------4-----------4-----------4-----------4-----------4-----------4-----------4-----------4-----|
|-----4-----4-----4-----4-----5-----5-----5-----5-----4-----4-----4-----4-----5-----5-----5-----5--|
|--2-----------2-----------------------------------2-----------2-----------------------------------|
|--------------------------3-----------3-----------------------------------3-----------3-----------|

|--------------17----------------------------19p17-------------------------------------------------|
|-----15-17b------17b------------X-----------------19----------------------15h17p15----------------|
|-14h16-----------------------------------------------20b---19----------------------16-14h16p14----|
|-----------------------------------------------------------------------------------------------16-|
|--------------------------------------------------------------------------------------------------|
|--------------------------------------------------------------------------------------------------|
|
|--------------------------------------------------------------------------------------------------|
|--------------------------------------------------------------------------------------------------|
|--------4-----------4-----------7-----------------------------------4-----------7-----------------|
|-----4-----4-----4-----4-----7-----7--------7-----------9--------5-----5-----7-----7--------7-----|
|--2-----------2-----------5--------------7-----7-----9-----9--------------5--------------7-----7--|
|--------------------------------------5-----------7-----------3-----------------------5-----------|

|--------------------------------------------------------------------------------------------------|
|--------------------------------------------------------------------------------------------------|
|--------------------------------------------------------------------------------------------------|
|--14----------------------14h16-------14----------------14-16-------12-14-14br-p12----14br-p12----|
|-----17-16-14----------17----------------17-------14-17----------------------------14----------14-|
|--------------------------------------------------------------------------------------------------|
|
|--------------------------------------------------------------------------------------------------|
|--------------------------------------------------------------------------------------------------|
|--------------------------------7-----------------------------------4-----------7-----------------|
|--------9-----------9--------7-----7--------7-----------9--------5-----5-----7-----7--------7-----|
|-----9-----9-----9-----9--5--------------7-----7-----9-----9--------------5--------------7-----7--|
|--7-----------7-----------------------5-----------7-----------3-----------------------5-----------|

|--------------------------|
|--------------------------|
|--------------------------|
|--------------------12-14b|
|-----------------14-------|
|--------------------------|
|
|--------------------------|
|--------------------------|
|--------4-----------4-----|
|-----5-----5-----5-----5--|
|--------------------------|
|--3-----------3-----------|
intro end

|--------------------------------------------------------------------------|
|--------------------------------------------------------------------------|
|--------------------------------------------------------------------------|
|--------------------------------------------------------14b----------14b--|
|--------------------------------------------------------------------------|
|--------------------------------------------------------------------------|
|
|--------------------------------------------------------------------------|
|--------------------------------------------------------------------------|
|--------4-----------4-----------7-----------------------4-----------4-----|
|-----4-----4-----4-----4-----7-----7--------7--------5-----5-----5-----5--|
|--2-----------2-----------5--------------7-----7--------------------------|
|--------------------------------------5-----------3-----------3-----------|

|--------------------------------------------------------------------------------------------------|
|--------------------------------------------------------------------------------------------------|
|--------------------------------------------------------------------------------------------------|
|-----14b--14b-14b-14b-14b-14b---------------------------------------------------------------------|
|--------------------------------------------------------------------------------------------------|
|--------------------------------------------------------------------------------------------------|
|
|--------------------------------------------------------------------------------------------------|
|--------------------------------------------------------------------------------------------------|
|--------4-----------4-----------4-----------4-----------7-----------------------4-----------4-----|
|-----4-----4-----4-----4-----4-----4-----4-----4-----7-----7--------7--------5-----5-----5-----5--|
|--2-----------2-----------2-----------2-----------5--------------7-----7--------------------------|
|--------------------------------------------------------------5-----------3-----------3-----------|

|--------------------------------------------------------------------------------------------------|
|--------------------------------------------------------------------------------------------------|
|--------------------------------------------------------------------------------------------------|
|--12-------------14b------------------------------------------------------------------------------|
|-----------14-------------------------------------------------------------------------------------|
|--------------------------------------------------------------------------------------------------|
|
|--------------------------------------------------------------------------------------------------|
|--------------------------------------------------------------------------------------------------|
|--------4-----------4-----------4-----------4-----------4-----------4-----------4-----------4-----|
|-----4-----4-----4-----4-----5-----5-----5-----5-----4-----4-----4-----4-----5-----5-----5-----5--|
|--2-----------2-----------------------------------2-----------2-----------------------------------|
|--------------------------3-----------3-----------------------------------3-----------3-----------|

|--------------------------------------------------------------------------------------------------|
|--------------------------------------------------------------------------------------------------|
|-----14-------------------------------------------------------------------------------------------|
|14b-----r--12-------------------------------------------------------------------------------------|
|--------------------------------------------------------------------------------------------------|
|--------------------------------------------------------------------------------------------------|
|
|--------------------------------------------------------------------------------------------------|
|--------------------------------------------------------------------------------------------------|
|--------4-----------4-----------7-----------------------------------4-----------7-----------------|
|-----4-----4-----4-----4-----7-----7--------7-----------9--------5-----5-----7-----7--------7-----|
|--2-----------2-----------5--------------7-----7-----9-----9--------------5--------------7-----7--|
|--------------------------------------5-----------7-----------3-----------------------5-----------|

|------------------------------------------------|
|------------------------------------------------|
|------------------------------------------------|
|--9--9--9--9--9--9--9--9--9--9--9--9--9--9--9\--|
|--9--9--9--9--9--9--9--9--9--9--9--9--9--9--9\--|
|--7--7--7--7--7--7--7--7--7--7--7--7--7--7--7\--|
[pm________________________________________]

|--------------------------------------------------------------------------------------------|
|--------------------------------------------------------------------------------------------|
|---------------------------------------------------------------------------------------h--p-|
|-------------------------------------------(16-16)14-12-------------16-16----12----12-111211|
|-----------------------------------------------------------14-12-14-------14----------------|
|--------------------------------------------------------------------------------------------|
|
|--------------------------------------------------------------------------------------------|
|--------------------------------------------------------------------------------------------|
|--------------------------------------------------------------------------------------------|
|--5--------5-----5-----7--------7-----7-----9--9--7--9-----7--9--7--9--9--7--9-----7--9--7--|
|--5--------5-----5-----7--------7-----7-----9--9--7--9-----7--9--7--9--9--7--9-----7--9--7--|
|--3--------3-----3-----5--------5-----5-----7--7--5--7-----5--7--5--7--7--5--7-----5--7--5--|

|--------------------------------------------------------------------------------------------|
|--------------------------------------------------15----------------------15----------------|
|--------------------------------------------------------------------------------------------|
|--------------------------------------------16-16----16----14-16-16-16-16----16----14-16-14-|
|--------------------------------------------------------------------------------------------|
|--------------------------------------------------------------------------------------------|
|
|--------------------------------------------------------------------------------------------|
|--------------------------------------------------------------------------------------------|
|--------------------------------------------------------------------------------------------|
|--5--------5-----5-----7--------7-----7-----9--9--7--9-----7--9--7--9--9--7--9-----7--9--7--|
|--5--------5-----5-----7--------7-----7-----9--9--7--9-----7--9--7--9--9--7--9-----7--9--7--|
|--3--------3-----3-----5--------5-----5-----7--7--5--7-----5--7--5--7--7--5--7-----5--7--5--|

|--------------------------------------------------------------------------------------------|
|--------------------------------------------------------------------------------------------|
|-------------------------------------------------------------------6x---------------1416----|
|--------------------------------------------16----------------12-16p14h------------16----16-|
|-----------------------------------------------12-12-14---12h14-----------------------------|
|--------------------------------------------------------------------------------------------|
|
|--------------------------------------------------------------------------------------------|
|--------------------------------------------------------------------------------------------|
|--------------------------------------------------------------------------------------------|
|--5--------5-----5-----7--------7-----7-----9--9--7--9-----7--9--7--9--9--7--9-----7--9--7--|
|--5--------5-----5-----7--------7-----7-----9--9--7--9-----7--9--7--9--9--7--9-----7--9--7--|
|--3--------3-----3-----5--------5-----5-----7--7--5--7-----5--7--5--7--7--5--7-----5--7--5--|

|------------------------------------------|
|------------------------------------------|
|------------------------------------------|
|--5--------5-----5-----7--------7-----7---|
|--5--------5-----5-----7--------7-----7---|
|--3--------3-----3-----5--------5-----5---|

|--------------------------------------------------------------------------|
|--------------------------------------------------------------------------|
|-----------------------------------------------------------2--4-----2-----|
|--------------------------------------------------------2h4------------4--|
|--------------------4h-5--7--5p-4h-5p-4p-2p-0h-2--------------------------|
|--7--------------7--------------------------------------------------------|
|
|--------------------------------------------------------------------------|
|--------------------------------------------------------------------------|
|--------4-----------4-----------7-----------------------4-----------4-----|
|-----4-----4-----4-----4-----7-----7--------7--------5-----5-----5-----5--|
|--2-----------2-----------5--------------7-----7--------------------------|
|--------------------------------------5-----------3-----------3-----------|
[pm________________________________________________________________________]

|--------------------------------------------------------------------------------------------------|
|--------------------------------------------------------------------------------------------------|
|--------------------------------------------------------------------------------------------------|
|--2h4p2-0--------------------------------------------------------------------------12-14b---14b14b|
|-----------4--2--0--2--0--2----------------------------------------------------(14)---------------|
|--------------------------------------------------------------------------------------------------|
|
|--------------------------------------------------------------------------------------------------|
|--------------------------------------------------------------------------------------------------|
|--------4-----------4-----------4-----------4-----------7-----------------------4-----------4-----|
|-----4-----4-----4-----4-----4-----4-----4-----4-----7-----7--------7--------5-----5-----5-----5--|
|--2-----------2-----------2-----------2-----------5--------------7-----7--------------------------|
|--------------------------------------------------------------5-----------3-----------3-----------|
[pm________________________________________________________________________________________________]

|--------------------------------------------------------------------------------------------------|
|--------------------------------------------------------------------------------------------------|
|--------------------------------------------------------------------------------------16----------|
|--14brp12--------------------------------------------------------------------14b---------16-------|
|--------14-14-------------------------------------------------------------------------------------|
|--------------------------------------------------------------------------------------------------|
|
|--------------------------------------------------------------------------------------------------|
|--------------------------------------------------------------------------------------------------|
|--------4-----------4-----------4-----------4-----------7-----------------------4-----------4-----|
|-----4-----4-----4-----4-----4-----4-----4-----4-----7-----7--------7--------5-----5-----5-----5--|
|--2-----------2-----------2-----------2-----------5--------------7-----7--------------------------|
|--------------------------------------------------------------5-----------3-----------3-----------|
[pm________________________________________________________________________________________________]

|--------------------------------------------------------------------------------------------------|
|--------------------------------------------------------------------------------------------------|
|--------------------------------------------------------------------------------------------------|
|--12-------12-------------------------------------------------------------------------------------|
|--------14----------------------------------------------------------------------------------------|
|--------------------------------------------------------------------------------------------------|
|
|--------------------------------------------------------------------------------------------------|
|--------------------------------------------------------------------------------------------------|
|--------4-----------4-----------4-----------4-----------4-----------4-----------4-----------4-----|
|-----4-----4-----4-----4-----5-----5-----5-----5-----4-----4-----4-----4-----5-----5-----5-----5--|
|--2-----------2-----------------------------------2-----------2-----------------------------------|
|--------------------------3-----------3-----------------------------------3-----------3-----------|
[pm________________________________________________________________________________________________]

|--------------------------------------------------------------------------------------------------|
|--------------------------------------------------------------------------------------------------|
|--------------------------------------------------------------------------------------------------|
|--------14b-----p12-------------------------------------------------------------------------------|
|-----14-------------------------------------------------------------------------------------------|
|--------------------------------------------------------------------------------------------------|
|
|--------------------------------------------------------------------------------------------------|
|--------------------------------------------------------------------------------------------------|
|--------4-----------4-----------7-----------------------------------4-----------7-----------------|
|-----4-----4-----4-----4-----7-----7--------7-----------9--------5-----5-----7-----7--------7-----|
|--2-----------2-----------5--------------7-----7-----9-----9--------------5--------------7-----7--|
|--------------------------------------5-----------7-----------3-----------------------5-----------|
[pm________________________________________________________________________________________________]

|---------------------------------------------------------------------------------------------|
|---------------------------------------------------------------------------------------------|
|---------------------------------------------------------------------------------------------|
|--9--9--9--9--9--9--9--9--9--9--9--9--9--9--9--9--9--9--9--9--9--9--9--9--9--9--9--9--9--9\--|
|--9--9--9--9--9--9--9--9--9--9--9--9--9--9--9--9--9--9--9--9--9--9--9--9--9--9--9--9--9--9\--|
|--7--7--7--7--7--7--7--7--7--7--7--7--7--7--7--7--7--7--7--7--7--7--7--7--7--7--7--7--7--7\--|
[pm________________________________________]

ok, this is about2:40... now only bass-guitar plays until 2:50, the guitar plays one chord:
|-----|
|-----|
|--11-|
|--11-|
|--9--|
|-----|

ok, about 3:00, 1st guitar starts (guitar-solo)
|--------------------------------------------------------------------------------------------|
|--------------------------------------------------------------------------------------------|
|--------------------------------------------------------------------------------------------|
|--16----16-16----16-16-16-16----16-16----16-16-16-16----16-16----16-16-16-16----16-16----16-|
|--------------------------------------------------------------------------------------------|
|--------------------------------------------------------------------------------------------|

|--------------------------------------------------------------------------------------------|
|--------------------------------------------------------------------------------------------|
|-----------------------------------------------------h------------------------h----5x-------|
|--14b---14-12----12-14-14b14b14b14b14b14b14b14brp12-121412-----h----h--12----1214-16p14-----|
|---------------14---------------------------------14-------14-1214-1214---14----------------|
|--------------------------------------------------------------------------------------------|
|
|--------------------------------------------------------------------------------------------|
|--------------------------------------------------------------------------------------------|
|--------------------------------------------------------------------------------------------|
|--5--------5-----5-----7--------7-----7-----9--9--7--9-----7--9--7--9--9--7--9-----7--9--7--|
|--5--------5-----5-----7--------7-----7-----9--9--7--9-----7--9--7--9--9--7--9-----7--9--7--|
|--3--------3-----3-----5--------5-----5-----7--7--5--7-----5--7--5--7--7--5--7-----5--7--5--|
[pm__________________________________________________________________________________________]

* replaces 15-17 
|---------------brp-----------------brp------------------brp---h-p------------19-19-19-191417|
|------------h-17-15---1515----15-*17-15-----17b17b17b17b17-1515171517b17b17b----------------|
|---h-16----1619---16---16--16--16-----------------------------------------------------------|
|--1619-16-----------------------------------------------------------------------------------|
|--------------------------------------------------------------------------------------------|
|--------------------------------------------------------------------------------------------|
|
|--------------------------------------------------------------------------------------------|
|--------------------------------------------------------------------------------------------|
|--------------------------------------------------------------------------------------------|
|--5--------5-----5-----7--------7-----7-----9--9--7--9-----7--9--7--9--9--7--9-----7--9--7--|
|--5--------5-----5-----7--------7-----7-----9--9--7--9-----7--9--7--9--9--7--9-----7--9--7--|
|--3--------3-----3-----5--------5-----5-----7--7--5--7-----5--7--5--7--7--5--7-----5--7--5--|

|--191714------------------------------------------------------------------------------------|
|----p-p------151717b--17b-rp12--15--15141514------------------------------------------------|
|---------------------------------------h-p--16---------1614--14-141614161416141614----14--\-|
|--------------------------------------------------------p-16------------p---p---p--16-------|
|--------------------------------------------------------------------------------------------|
|--------------------------------------------------------------------------------------------|
|
|--------------------------------------------------------------------------------------------|
|--------------------------------------------------------------------------------------------|
|--------------------------------------------------------------------------------------------|
|--5--------5-----5-----7--------7-----7-----9--9--7--9-----7--9--7--9--9--7--9-----7--9--7--|
|--5--------5-----5-----7--------7-----7-----9--9--7--9-----7--9--7--9--9--7--9-----7--9--7--|
|--3--------3-----3-----5--------5-----5-----7--7--5--7-----5--7--5--7--7--5--7-----5--7--5--|

|--------------------------------------------------------------------------------------------|
|--------------------------------------1512--------------------------------------------------|
|---------------------------------------p-14-------------------------------------------------|
|--16---16-16--16-1412--16---16-16--16-------16----16-16----16-16-16-16----16-16----14-12----|
|------------------p-14-------------------------------------------------------------------14-|
|--------------------------------------------------------------------------------------------|
|
|--------------------------------------------------------------------------------------------|
|--------------------------------------------------------------------------------------------|
|--------------------------------------------------------------------------------------------|
|--5--------5-----5-----7--------7-----7-----9--9--7--9-----7--9--7--9--9--7--9-----7--9--7--|
|--5--------5-----5-----7--------7-----7-----9--9--7--9-----7--9--7--9--9--7--9-----7--9--7--|
|--3--------3-----3-----5--------5-----5-----7--7--5--7-----5--7--5--7--7--5--7-----5--7--5--|

|--------------------------------------------------------------------------------------------|
|--------------------------------------------------------------------------------------------|
|--------------------------------------------------------------------------------------------|
|--16-------16--1616-16-16-------16----16----16-------16-------------16-14-12---121412-14b---|
|-----------------------------------------------------------------------------14--h-p--------|
|--------------------------------------------------------------------------------------------|
|
|--------------------------------------------------------------------------------------------|
|--------------------------------------------------------------------------------------------|
|--------------------------------------------------------------------------------------------|
|--5--------5-----5-----7--------7-----7-----9--9--7--9-----7--9--7--9--9--7--9-----7--9--7--|
|--5--------5-----5-----7--------7-----7-----9--9--7--9-----7--9--7--9--9--7--9-----7--9--7--|
|--3--------3-----3-----5--------5-----5-----7--7--5--7-----5--7--5--7--7--5--7-----5--7--5--|

|------------------------------------------|
|------------------------------------------|
|--------------------------------14-16-----|
|--16-------16-16-1412--16--16-16----------|
|------------------p--14-------------------|
|------------------------------------------|
|
|------------------------------------------|
|------------------------------------------|
|------------------------------------------|
|--5--------5-----5-----7--------7-----7---|
|--5--------5-----5-----7--------7-----7---|
|--3--------3-----3-----5--------5-----5---|

|--------------------------------------------------------------------------|
|--------------------------------------------------------------------------|
|--------------------------------------------------------------------------|
|--------------------------14b------------------------------------14-14br--|
|--------------------------------------------------------------------------|
|--------------------------------------------------------------------------|
|
|--------------------------------------------------------------------------|
|--------------------------------------------------------------------------|
|--------4-----------4-----------7-----------------------4-----------4-----|
|-----4-----4-----4-----4-----7-----7--------7--------5-----5-----5-----5--|
|--2-----------2-----------5--------------7-----7--------------------------|
|--------------------------------------5-----------3-----------3-----------|
[pm________________________________________________________________________]

|------------------------------------------------------------------------------------------19b-----|
|--------------------------------------------------------------------------------------------------|
|----------------------------------------161414--14--------------------16-19b----19----------------|
|--12----------------------------121214b--p---1619-14b-----12-----/1619----------------------------|
|-----14----------------------14----------------h-------------------h------------------------------|
|--------------------------------------------------------------------------------------------------|
|
|--------------------------------------------------------------------------------------------------|
|--------------------------------------------------------------------------------------------------|
|--------4-----------4-----------4-----------4-----------7-----------------------4-----------4-----|
|-----4-----4-----4-----4-----4-----4-----4-----4-----7-----7--------7--------5-----5-----5-----5--|
|--2-----------2-----------2-----------2-----------5--------------7-----7--------------------------|
|--------------------------------------------------------------5-----------3-----------3-----------|
[pm________________________________________________________________________________________________]

|--------------------------------------------------------------------------------------------------|
|--------17b-17b--17b-17b--17b----------19p17p15--15-17b-rp12--------14h15p--(until.end.of.bar)----|
|----19-----------------------------------------16-----------16------------------------------------|
|--------------------------------------------------------------------------------------------------|
|--------------------------------------------------------------------------------------------------|
|--------------------------------------------------------------------------------------------------|
|
|--------------------------------------------------------------------------------------------------|
|--------------------------------------------------------------------------------------------------|
|--------4-----------4-----------4-----------4-----------4-----------4-----------4-----------4-----|
|-----4-----4-----4-----4-----5-----5-----5-----5-----4-----4-----4-----4-----5-----5-----5-----5--|
|--2-----------2-----------------------------------2-----------2-----------------------------------|
|--------------------------3-----------3-----------------------------------3-----------3-----------|
[pm________________________________________________________________________________________________]

|-----------------------------------------------------------------------------------19-------------|
|----------------------14--15--14--15--17--15--14--17--15--14--17--15--14--17b-----------------17br|
|--16--------------16------------------------------------------------------------------------------|
|--------------------------------------------------------------------------------------------------|
|--------------------------------------------------------------------------------------------------|
|--------------------------------------------------------------------------------------------------|
|
|--------------------------------------------------------------------------------------------------|
|--------------------------------------------------------------------------------------------------|
|--------4-----------4-----------7-----------------------------------4-----------7-----------------|
|-----4-----4-----4-----4-----7-----7--------7-----------9--------5-----5-----7-----7--------7-----|
|--2-----------2-----------5--------------7-----7-----9-----9--------------5--------------7-----7--|
|--------------------------------------5-----------7-----------3-----------------------5-----------|
[pm________________________________________________________________________________________________]

|--------------------------------------------------------------------------------------------------|
|----------------14h15p14--------------------------------------------------------------------------|
|-----------------------16-------------------------14--*feedback*----------------------------------|
|-----------------------------------------------------------------------------14b------14----12----|
|--------------------------------------------------------------------------------------------------|
|--------------------------------------------------------------------------------------------------|
|
|--------------------------------------------------------------------------------------------------|
|--------------------------------------------------------------------------------------------------|
|--------4-----------4-----------7-----------------------------------4-----------7-----------------|
|-----4-----4-----4-----4-----7-----7--------7-----------9--------5-----5-----7-----7--------7-----|
|--2-----------2-----------5--------------7-----7-----9-----9--------------5--------------7-----7--|
|--------------------------------------5-----------7-----------3-----------------------5-----------|
[pm________________________________________________________________________________________________]

|--------------------------------------------------------------------------------------------------|
|--------------------------------------------------------------------------------------------------|
|--------------------------------------------------------------------------------------------------|
|-----------------------12------------------------------------------------------------------14b----|
|--14----------------------14----------------------------------------------------------------------|
|--------------------------------------------------------------------------------------------------|
|
|--------------------------------------------------------------------------------------------------|
|--------------------------------------------------------------------------------------------------|
|--------4-----------4-----------4-----------4-----------7-----------------------4-----------4-----|
|-----4-----4-----4-----4-----4-----4-----4-----4-----7-----7--------7--------5-----5-----5-----5--|
|--2-----------2-----------2-----------2-----------5--------------7-----7--------------------------|
|--------------------------------------------------------------5-----------3-----------3-----------|

|--------------------------------------------------------------------------------------------------|
|--------------------------------------------------------------------------------------------------|
|--------------------------------------------------------------------------------------------------|
|--12----------------------------------------------------------------------------------------------|
|------------14--p12h14p12h14----------------------------------------------------------------------|
|--------------------------------------------------------------------------------------------------|
|
|--------------------------------------------------------------------------------------------------|
|--------------------------------------------------------------------------------------------------|
|--------4-----------4-----------4-----------4-----------7-----------------------4-----------4-----|
|-----4-----4-----4-----4-----4-----4-----4-----4-----7-----7--------7--------5-----5-----5-----5--|
|--2-----------2-----------2-----------2-----------5--------------7-----7--------------------------|
|--------------------------------------------------------------5-----------3-----------3-----------|

|--------------------------------------------------------------------------------------------------|
|--------------------------------------------------------------------------------------------------|
|--------------------------------------------------------------------------------------------------|
|--------14b---------------------------------------------------------------------------------------|
|--------------------------------------------------------------------------------------------------|
|--------------------------------------------------------------------------------------------------|
|
|--------------------------------------------------------------------------------------------------|
|--------------------------------------------------------------------------------------------------|
|--------4-----------4-----------4-----------4-----------4-----------4-----------4-----------4-----|
|-----4-----4-----4-----4-----5-----5-----5-----5-----4-----4-----4-----4-----5-----5-----5-----5--|
|--2-----------2-----------------------------------2-----------2-----------------------------------|
|--------------------------3-----------3-----------------------------------3-----------3-----------|

|-----|
|-----|
|-----|
|-----|
|-----|
|-----|
|
|--------------------------------------------------------------------------------------------------|
|--------------------------------------------------------------------------------------------------|
|--------4-----------4-----------7-----------------------------------4-----------7-----------------|
|-----4-----4-----4-----4-----7-----7--------7-----------9--------5-----5-----7-----7--------7-----|
|--2-----------2-----------5--------------7-----7-----9-----9--------------5--------------7-----7--|
|--------------------------------------5-----------7-----------3-----------------------5-----------|

|------------------------------------------------|
|------------------------------------------------|
|------------------------------------------------|
|--9--9--9--9--9--9--9--9--9--9--9--9--9--9--9\--|
|--9--9--9--9--9--9--9--9--9--9--9--9--9--9--9\--|
|--7--7--7--7--7--7--7--7--7--7--7--7--7--7--7\--|
[pm________________________________________]

well, i hardly hear the 1st guitar in this part, so this is just a guess what he could play...
|--------------------------------------------------------------------------------------------|
|--------------------------------------------------------------------------------------------|
|-----------------------------------------------14----------14----------14-------------------|
|--16----16-16-16-16-14-16---16-16-----16-16-16----16-16-------16-16-16----16-16----14-16-14-|
|--------------------------------------------------------------------------------------------|
|--------------------------------------------------------------------------------------------|
|
|--------------------------------------------------------------------------------------------|
|--------------------------------------------------------------------------------------------|
|--------------------------------------------------------------------------------------------|
|--5--------5-----5-----7--------7-----7-----9--9--7--9-----7--9--7--9--9--7--9-----7--9--7--|
|--5--------5-----5-----7--------7-----7-----9--9--7--9-----7--9--7--9--9--7--9-----7--9--7--|
|--3--------3-----3-----5--------5-----5-----7--7--5--7-----5--7--5--7--7--5--7-----5--7--5--|

|--------------------------------------------------------------------------------------------|
|--------------------------------------------------------------------------------------------|
|-----------------14-------------------------------------------------------------------------|
|--16-------16-1416-----16----16-16----16----16-16----------------12-------------------------|
|--------------------------------------------------12-14----12-14----14-14-12-14----12-14-12-|
|--------------------------------------------------------------------------------------------|
|
|--------------------------------------------------------------------------------------------|
|--------------------------------------------------------------------------------------------|
|--------------------------------------------------------------------------------------------|
|--5--------5-----5-----7--------7-----7-----9--9--7--9-----7--9--7--9--9--7--9-----7--9--7--|
|--5--------5-----5-----7--------7-----7-----9--9--7--9-----7--9--7--9--9--7--9-----7--9--7--|
|--3--------3-----3-----5--------5-----5-----7--7--5--7-----5--7--5--7--7--5--7-----5--7--5--|

|--------------------------------------------------------------------------------------------|
|--------------------------------------------------------------------------------------------|
|-------------------------------------------------------------------6x---------------1416----|
|--12-------12----12----14-------14----14----16----------------12-16p14h------------16----16-|
|-----------------------------------------------12-12-14---12h14-----------------------------|
|--------------------------------------------------------------------------------------------|
|
|--------------------------------------------------------------------------------------------|
|--------------------------------------------------------------------------------------------|
|--------------------------------------------------------------------------------------------|
|--5--------5-----5-----7--------7-----7-----9--9--7--9-----7--9--7--9--9--7--9-----7--9--7--|
|--5--------5-----5-----7--------7-----7-----9--9--7--9-----7--9--7--9--9--7--9-----7--9--7--|
|--3--------3-----3-----5--------5-----5-----7--7--5--7-----5--7--5--7--7--5--7-----5--7--5--|

|------------------------------------------|
|------------------------------------------|
|------------------------------------------|
|--12-------12----12----14-------14----14--|
|------------------------------------------|
|------------------------------------------|
|
|------------------------------------------|
|------------------------------------------|
|------------------------------------------|
|--5--------5-----5-----7--------7-----7---|
|--5--------5-----5-----7--------7-----7---|
|--3--------3-----3-----5--------5-----5---|

|---------------------------------------------------------------------------------------------|
|---------------------------------------------------------------------------------------------|
|---------------------------------------------------------------------------------------------|
|----------12--14--14b-12------12--14b-r-p12--------------------------------------------------|
|--14--14------------------14-----------------14--12------------------------------------------|
|-----------------------------------------------------14--12--10--7---5---2---0--h2--h5-------|
|
|---------------------------------------------------------------------------------------------|
|---------------------------------------------------------------------------------------------|
|---------------------------------------------------------------------------------------------|
|--9------------------------------------------------------------------------------------------|
|--9------------------------------------------------------------------------------------------|
|--7------------------------------------------------------------------------------------------|

ok, that's it... if you don't like the outro-riffs, play some solo-riffs...
i hope, you like this tab!

/: slide up
\: slide down
h: hammer on
P: pull off
b: bend
pm: palmmute

(hey UG-team! i haven't found the oficial website, but the myspace website:
http://www.myspace.com/rocketfromthetombs and something with wikipedia:
http://en.wikipedia.org/wiki/Rocket_From_the_Tombs )

            
            
Suggest correction
Creating personal tab
Creating personal tab
You can edit any tab online and save it as your Personal.

You can edit, replace or remove any tab part or add personal notes – all changes will be seen only by you.

Personal tabs can be accessed anytime from any device, even offline.
Learn more »
Give kudos to tab author, rate the tab!
1 2 3 4 5
comments
print report bad tab
1 comment total.
+1 reply
J.C. Savage 10 Oct 09, 2009 07:26 PM

I wouldn't really say the Deadboys were covering this or any track originally performed by R.F.T.T. considering half of them were members of R.F.T.T., the rest of R.F.T.T. became Pere Ubu........

guest
You may want to rate the tab now too:
select rating
Wanna post a correction for this tab? Suggest correction