Oops, an error
Loading. Please wait.

Ronnie Disaronno - Good Mornin bass

79 views 1 this week
no commentswrite comment
1 2 3 4 5
3 more votes to show rating
add to favorites
×
Save as Personal and add changes to this tab that will be seen only by you. Learn more ›
×
You can save this tab as Personal to edit and correct it or add notes. All changes will be seen only by you. Learn more »
launch autoscroll
font size
0
reset
guitar tuner
edit
Autoscroll
slow
fast
+/-
esc
set tempo
stop
Author
Difficulty
Good Mornin C Ronnie Disaronno
Bass Guitar score - Standard Tuning
The chords are a guide as to what the guitars are doing, so you can go a bit nuts 
with the ad-libbing.

Intro
      E5                                                         A5
G||-------------------------------|----------------------------|------------------------2--|
D||---------------2-2-------------|---------------2-2----------|-------------------2--4----|
A||----------2h4-------4p2--- 2---|----------2h4------4p2----2-|-0-0-0-0-0-0-0-0-3---------|
E||-0-0-3h4-----------------3---3-|-0-0-3h4---------------3----|---------------------------|

  E5                             B5              A5                 E5
|------------------------------|-------------------------2p0------|------------------------|
|----------------2-2-----------|------------------------------2p0-|-------------2----------|
|-----------2h4------4p2----2--|-2-2-2-2-2-2-2-1-0-0-0-0----------|---------2h4----0-1-2v--|
|-0-0-3h4----------------3-----|----------------------------------|-0-0-3h4----------------|


Verse                                                    Pre-Chorus
  EMaj               A7                 repeat once        B5       D5        E5        repeat once
|------------------|---------------------|               |------------------|-----------------|
|.-----------------|--------------------.|               |.-----------------|----------------.|
|.-7-7-7-7-7-7-7-7-|--------3-4-5-5-5-5-.|               |.-2-2-2-4-5-5-5-5-|--------------- .|
|------------------|-5-5-5---------------|               |------------------|-0-0-0-0-0-0-0-0-|

Chorus                                                                        
 B5       A5        E5                          B5       A5       E5       D5 
|----------------|-------------------------|---------------------------------|               
|----------------|---------------------2---|---------------------------------|
|2-2-2-2-0-0-0-0-|--------2h4------2h4---4-|2-2-2-2-0-0-0-0----------5-5-5-5-|
|----------------|-00-3h4-----0-3h4--------|----------------0-0-0-0----------|

 
After-Chorus
 E5
|-----------------------------|-----------------------------| 
|--------------2-2------------|-------------2----half bar---|       
|---------2h4------4p2----2---|---------2h4---------rest----|       
|-0-0-3h4--------------3----3-|-0-0-3h4---------------------|             


Following this:
Verse
Pre-Chorus
Chorus


Bridge (the bass and rhythm guitar play the same pattern, the lead plays the following chords...)
 E             F#5  G5              A5           B5  C5          repeat once     D5     repeat once
|----------------------------------|-----------------------------------| ------------------|
|.--------------2-2----------------|---------------2-2----------------.|. ----------------.|
|.---------2h4-------4p2-----2-----|----------2h4-------4p2-----2-----.|.-5-5-5-5-5-5-5-5-.|
|-0-0-3h4-----------------3----3---|-0-0-3h4-----------------3----3----| ------------------|

Guitar Solo
(rest of the band play Verse & Pre-Chorus as normal under the solo)

Outro:
Starts with Chorus x2 
Then the following:
   C5       A#5      F5                C5      A#5      F5      D#5 repeat once  C5
|------------------|-----------------|-----------------|--------------------|--------|     
|.-----------------|-----------------|-----------------|-------------------.|--------|      
|.-3-3-3-3-1-1-1-1-|-----------------|-3-3-3-3-1-1-1-1-|----------6-6-6-6--.|-3------|
|------------------|-1-1-1-1-1-1-1-1-|-----------------|-1-1-1-1 -----------|--------|


Rock on. 

            
            
Suggest correction
Creating personal tab
Creating personal tab
You can edit any tab online and save it as your Personal.

You can edit, replace or remove any tab part or add personal notes – all changes will be seen only by you.

Personal tabs can be accessed anytime from any device, even offline.
Learn more »
Give kudos to tab author, rate the tab!
1 2 3 4 5
comments
print report bad tab
guest
You may want to rate the tab now too:
select rating
Wanna post a correction for this tab? Suggest correction