Oops, an error
Loading. Please wait.

Rosalita - Art Attack bass

221 views 1 this week
no commentswrite comment
1 2 3 4 5
3 more votes to show rating
add to favorites
×
Save as Personal and add changes to this tab that will be seen only by you. Learn more ›
×
You can save this tab as Personal to edit and correct it or add notes. All changes will be seen only by you. Learn more »
launch autoscroll
font size
0
reset
guitar tuner
edit
Autoscroll
slow
fast
+/-
esc
set tempo
stop
Author
This is a really simple song to play by Rosalita- this is my first tab so sorry
if there r any mistakes :)

Intro

----------------------------------|
----------------------------------|
----5-4-5------------5-4-5--------|    x4
-3----------3-----3----------3----|

Verse

----------------------------------|
----------------------------------|
----5-4-5------------5-4-5--------|  x2
-3----------3-----3----------3----|

----------------------------------|
----3-2-3------------3-2-3--------|
-1----------1-----1----------1----|
----------------------------------|

----------------------------------|
----------------------------------|
----5-4-5------------5-4-5--------|
-3----------3-----3----------3----|


----------------------------------|
----------------------------------|
----5-4-5------------5-4-5--------|  x2
-3----------3-----3----------3----|

----------------------------------|
----3-2-3------------3-2-3--------|
-1----------1-----1----------1----|
----------------------------------|

----------------------------------|
----------------------------------|
----5-4-5------------5-4-5--------|
-3----------3-----3----------3----|


Chorus

----------------------------------|
----------------------------------|
----------------------------------|
1-1-1-1-1-1-1-1-2-2-2-2-2-2-2-2---|


----------------------------------|
----------------------------------|
----5-4-5------------5-4-5--------|
-3----------3-----3----------3----|


----------------------------------|
----------------------------------|
----------------------------------|
1-1-1-1-1-1-1-1-2-2-2-2-2-2-2-2---|


----------------------------------|
----------------------------------|
----5-4-5------------5-4-5--------|  x2
-3----------3-----3----------3----|


Verse


Chorus 2

----------------------------------|
----------------------------------|
----------------------------------|
1-1-1-1-1-1-1-1-2-2-2-2-2-2-2-2---|

----------------------------------|
----------------------------------|
----5-4-5------------5-4-5--------|
-3----------3-----3----------3----|

----------------------------------|
----------------------------------|
----------------------------------|
1-1-1-1-1-1-1-1-2-2-2-2-2-2-2-2---|


Bridge

----------------------------------|
----------------------------------|
---------------------5-4-5--------| x7
------------------3----------3----|

Verse x2

Chorus

----------------------------------|
----------------------------------|
----------------------------------|
1-1-1-1-1-1-1-1-2-2-2-2-2-2-2-2---|

----------------------------------|
----------------------------------|
----5-4-5------------5-4-5--------|
-3----------3-----3----------3----|

----------------------------------|
----------------------------------|
----------------------------------|
1-1-1-1-1-1-1-1-2-2-2-2-2-2-2-2---|

----------------------------------|
----------------------------------|
----5-4-5------------5-4-5--------|
-3----------3-----3----------3----|


----------------------------------|
----------------------------------|
----------------------------------|
1-1-1-1-1-1-1-1-2-2-2-2-2-2-2-2---|

----------------------------------|
----------------------------------|
----5-4-5------------5-4-5--------|
-3----------3-----3----------3----|

----------------------------------|
----------------------------------|
----------------------------------|
1-1-1-1-1-1-1-1-2-2-2-2-2-2-2-2---|

----------------------------------|
----------------------------------|
----5-4-5------------5-4-5--------|
-3----------3-----3----------3----|


end of song

            
            
Suggest correction
Creating personal tab
Creating personal tab
You can edit any tab online and save it as your Personal.

You can edit, replace or remove any tab part or add personal notes – all changes will be seen only by you.

Personal tabs can be accessed anytime from any device, even offline.
Learn more »
Give kudos to tab author, rate the tab!
1 2 3 4 5
comments
print report bad tab
guest
You may want to rate the tab now too:
select rating
Wanna post a correction for this tab? Suggest correction