Oops, an error
Loading. Please wait.

S4 League - Supersonic bass

654 views 1 this week
no commentswrite comment
1 2 3 4 5
3 more votes to show rating
add to favorites
×
Save as Personal and add changes to this tab that will be seen only by you. Learn more ›
×
You can save this tab as Personal to edit and correct it or add notes. All changes will be seen only by you. Learn more »
launch autoscroll
font size
0
reset
guitar tuner
edit
Autoscroll
slow
fast
+/-
esc
set tempo
stop
Author
Difficulty
Artist: S4 League
Reason being is because I am not sure who the artist really is. The CD is nearly 
to get, so I'll name it after the game it came from.

Song: Supersonic
The theme from Neden v1.

Its rated intermediate because the song is fast.

A little about myself:
I have not been playing the bass for longer than 4 months, but I have been making some
and decided to try and write a tab. If any bass player is interested in this song, could
check to see how I did?

This is my first tab, so bare with me, and I hope you guys find it useful.

P.S.: The intro sounds like its (35035035030003030) like you keep playing the E along
the other notes. I'm not sure, but if it sounds better to you, you should try it. The
count it in triplets like (123-123-123) then (12-12) and it should be easier to play.


Intro

G|--------------------------------|
D|--------------------------------|
A|--------------------------------|
E|-35-35-35-3--3-3-35-35-35-3----5|

Main Riff (x8)

G|-----------------------|
D|-----------------------|
A|----------23-----------|
E|-33--3333---33----33012|

Second Riff (x4)

G|------------------------|
D|------------------------|
A|-23--3-------23--3------|
E|---------000--------131-|

Main Riff (x1)

G|-----------------------|
D|-----------------------|
A|----------23-----------|
E|-33--3333---33----33012|

Then...

G|----------------------------|
D|----------------------------|
A|----------23----------------|
E|-33--3333---33-33-----------|

Chorus (x4)

G|-----------------------------------|
D|-----------------------------------|
A|-0-0-32--3-----0230-0-32--3--------|
E|-----------------------------1--102|

Main Riff (x14)

G|-----------------------|
D|-----------------------|
A|----------23-----------|
E|-33--3333---33----33012|

Second Riff (x4)

G|-------------------------|
D|-------------------------|
A|-23--3--------23--3------|
E|----------000--------131-|

Main Riff (x1)

G|-----------------------|
D|-----------------------|
A|----------23-----------|
E|-33--3333---33----33012|

Then...

G|-----------------------------|
D|-----------------------------|
A|----------23-----------------|
E|-33--3333---33-33------------|

Chorus (x4)

G|-----------------------------------|
D|-----------------------------------|
A|-0-0-32--3-----0230-0-32--3--------|
E|-----------------------------1--102|

Outro (x2)

G|-----------------------------------|
D|-----------------------------------|
A|-----------------------------------|
E|-10010030010010131001003001001--102|

End

G|-----------------------|
D|-----------------------|
A|-----------------------|
E|-3~(let ring)----------|


**Repeat as much as you want**

            
            
Suggest correction
Creating personal tab
Creating personal tab
You can edit any tab online and save it as your Personal.

You can edit, replace or remove any tab part or add personal notes – all changes will be seen only by you.

Personal tabs can be accessed anytime from any device, even offline.
Learn more »
Give kudos to tab author, rate the tab!
1 2 3 4 5
comments
print report bad tab
guest
You may want to rate the tab now too:
select rating
Wanna post a correction for this tab? Suggest correction