Oops, an error
Loading. Please wait.

Shane Harper - Just Friends tab

7,213 views 3 this week
no commentswrite comment
1 2 3 4 5
1 last vote to show rating
add to favorites
×
Save as Personal and add changes to this tab that will be seen only by you. Learn more ›
×
You can save this tab as Personal to edit and correct it or add notes. All changes will be seen only by you. Learn more »
launch autoscroll
font size
0
reset
how to read this tab
guitar tuner
edit
Autoscroll
slow
fast
+/-
esc
set tempo
stop
Author
-----------------------------------------------------------------------------
                         JUST FRIENDS - Shane Harper
-----------------------------------------------------------------------------

Tuning: Standard

Intro and verse:
e|---------------------------------|
B|----------2---3---------2---0----|
G|--------2-----2-------2-----1----|   Repeat til chorus
D|------4-------------2------------|
A|----4-------------0--------------|
E|---------------------------------|
        F#m     D     A       E

I'll wait for you to give me a sign
you tire me I have 'em certainty
I thought how you feel, how your heart works
I just need to know for sure

Chorus(strum):
     F#m     D              A             E
If I ask you out, would you smile and say yes?
     F#m       D           A             E
If I hold your hand, would tell all your friends?
     F#m        D               A         E              F#m D
If I sing you a song, would you ask me to sing it again?
(return to plucking)  A  E
        or maybe we            should just be friends.

or maybe we should just be friends.

2nd verse: (pluck)
There are so many things that I want to know
What do you love, what do you hate,
what makes you strong, what makes you break
what makes you laugh, what makes you cry
I need to know why..... I need to know

Repeat chorus

Bridge:
e|--------------------------------------------------------------------------|
B|--------2-------3--3-------2-------0--0--------2-------3--3---22---00-----|
G|------2-------2----2-----2-------1----1------2-------2----2---22---11-----|
D|----4-------0----------2-------2-----------4-------0----------22---22-----|
A|--4-------0----------0-------2-----------4-------0------------00---22-----|
E|--------------------------------------------------------------------------|
  ==============================do=this=twice===============================

Baby I'm the one for you and
Baby you're the one for me
Maybe we were meant to be
together forever

Baby I'm the one for you and
Baby you're the one for me
Maybe we were meant to be
together forever

Repeat chorus

ending (the last "or maybe we should just be friends" in the chorus)
e|--------------------------------------------|
B|----------2--------3--3------------2---1----|
G|--------2--------2----2----------2-----0----|
D|------4--------0---------------2------------|
A|----4--------0---------------0--------------|
E|--------------------------------------------|

            
            
Suggest correction
Creating personal tab
Creating personal tab
You can edit any tab online and save it as your Personal.

You can edit, replace or remove any tab part or add personal notes – all changes will be seen only by you.

Personal tabs can be accessed anytime from any device, even offline.
Learn more »
Give kudos to tab author, rate the tab!
1 2 3 4 5
comments
print report bad tab
guest
You may want to rate the tab now too:
select rating
Wanna post a correction for this tab? Suggest correction