Oops, an error
Loading. Please wait.

Shift - Stay bass

62 views 1 this week
no commentswrite comment
1 2 3 4 5
3 more votes to show rating
add to favorites
×
Save as Personal and add changes to this tab that will be seen only by you. Learn more ›
×
You can save this tab as Personal to edit and correct it or add notes. All changes will be seen only by you. Learn more »
launch autoscroll
font size
0
reset
guitar tuner
edit
Autoscroll
slow
fast
+/-
esc
set tempo
stop
-------------------------------------------------------------------------------
                             Stay - Shift
band – shift
bassist – Justin Brasch
bassline by – Greg Theodosakis

Tuning:  standard
intro(upper notes double guitar and are optional)
G|-----------------------------------------3-------3---3-----5---5-----------|
D|-----3-------3---3-----3-------3---3-1-1---1-1-1---1---3-3---3-------------|
A|-1-1---1-1-1---1---0-0---0-0-0---0-----------------------------------------|
E|---------------------------------------------------------------------------|
play the lower notes the same rhythm as all of the guitar's notes if you leave out the 
notes^

main riff type thing
G|--------------------------->>>>>>>>----------------------------------------|
D|---------------------------11111110----------------------------------------|
A|-11111110------------------------------------------------------------------|
E|----------11111111-3333333-------------------------------------------------|
notes are single digit^ but are spaced with eachother for ease of typing

bridge (this is a little off on like the last note, ask Evans for his bass notes on the 
if you want to change notes with him)
G|---------------------------->>>>->-----------------------------------------|
D|----------------------------1111-1-----------------------------------------|
A|-11111110------------------------------------------------------------------|
E|----------11111111-33333333------------------------------------------------|

ending
G|---------------------------------------------------------------------------|
D|------------------------------11111110------------------------------1111-33|
A|-11111111-------------------1----------11111111-------------------1--------|
E|----------11111111-33x0h3-1---------------------11111111-33x0-3-1----------|

G|---------------------------------------------------------------------------|
D|3-0->----------------------------------------------------------------------|
A|----1hold------------------------------------------------------------------|
E|---------------------------------------------------------------------------|

>=accent
h=hammer-on
p=pulloff
x=slap muted strings

all notes are single digit numbers

notes usable for fills and stuff (I think)
G|-----------------0-1-3-5-7-8-----------------------------------------------|
D|-----------0-1-3-----------------------------------------------------------|
A|-----0-1-3-----------------------------------------------------------------|
E|-1-3-----------------------------------------------------------------------|

            
            
Suggest correction
Creating personal tab
Creating personal tab
You can edit any tab online and save it as your Personal.

You can edit, replace or remove any tab part or add personal notes – all changes will be seen only by you.

Personal tabs can be accessed anytime from any device, even offline.
Learn more »
Give kudos to tab author, rate the tab!
1 2 3 4 5
comments
print report bad tab
guest
You may want to rate the tab now too:
select rating
Wanna post a correction for this tab? Suggest correction