Oops, an error
Loading. Please wait.

Silhouette Behind The Gun - Dissociate bass

83 views 1 this week
no commentswrite comment
1 2 3 4 5
2 more votes to show rating
add to favorites
×
Save as Personal and add changes to this tab that will be seen only by you. Learn more ›
×
You can save this tab as Personal to edit and correct it or add notes. All changes will be seen only by you. Learn more »
launch autoscroll
font size
0
reset
guitar tuner
edit
Autoscroll
slow
fast
+/-
esc
set tempo
stop
Author
Difficulty
------------------------------------------------------------------
	     DISSOCIATE - Silhouette Behind The Gun
------------------------------------------------------------------

Tabbed By : Johnny Moshville
e-mail: johnleeroberts@gmail.com

Tuning: Standard EADG

INTRO
    C5
G|--------------------------------------------------|
D|--------------------------------------------------|
A|--------------------------------------------------|
E|--8--8--8--0--3--3--3--0--8--8--8--3--5--3--5--0--|

MAIN RIFF
    C5
G|--------------------------------------------------|
D|--------------------------------------------------|
A|--------------------------------------------------|
E|--8--8--8--0--3--3--3--0--8--8--8--3--5--3--5--0--|

    C5
G|--------------------------------------------------|
D|--------------------------------------------------|
A|--------------------------------------------------|
E|--8--8--8--0--3--3--3--0--8--8--8--3--5--3--5--0--|

    F5
G|--------------------------------------------------|
D|--------------------------------------------------|
A|--8--8--8--0--3--3--3--0--8--8--8--3--5--3--5--0--|
E|--------------------------------------------------|

    F5
G|--------------------------------------------------|
D|--------------------------------------------------|
A|--8--8--8--0--3--3--3--0--8--8--7--7--8--8--5--5--|
E|--------------------------------------------------|


VERSE
    C5
G|---------------------------------------------|
D|---------------------------------------------|
A|----------------------------------7----------|
E|--8-----8-7h8-----8-7h8-----8-7h8---8-7h(8)--|

    C5
G|---------------------------------------------|
D|---------------------------------------------|
A|----------------------------------7----------|
E|--8-----8-7h8-----8-7h8-----8-7h8---8\-------|

    F5
G|---------------------------------------------|
D|---------------------------------------------|
A|---------------------------------------------|
E|--1-----1-0-1-----1-0-1-----1-0-1-0-3-0------|

    F5
G|---------------------------------------------|
D|---------------------------------------------|
A|---------------------------------------------|
E|--1-----1-0-1-----1-0-1-----3----5----7------|


CHORUS
    A#5
G|---------------------------------------------------|
D|---------------------------------------------------|
A|---------------------------------------------------|
E|--/6--6--6--6--6--6--6--6--6--6--6--6--6--6--6--6--|

    C5
G|---------------------------------------------------|
D|---------------------------------------------------|
A|---------------------------------------------6-----|
E|--/8--8--8--8--8--8--8--8--8--8--8--8--8--8--------|

    F5
G|---------------------------------------------------|
D|---------------------------------------------------|
A|---8--8--8--8--8--8--8--8--8--8--8--8--8--8--8--8--|
E|---------------------------------------------------|

    F5
G|---------------------------------------------------|
D|---------------------------------------------------|
A|--/10-10-10-10-10-10-10-10-10-10-10-10-10-10-10-10-|
E|---------------------------------------------------|

The very last chorus ends with this little flourish:
    F5
G|------------------------------------------10h12-12-|
D|----------------------------------8h10s12----------|
A|--/10-10-10-10-10-10-10-10-10-10-------------------|
E|---------------------------------------------------|


ORDER
INTRO RIFF x 4
MAIN RIFF x 2
VERSE 1 (Verse riff x 3+1/2)
CHORUS 1 (Chorus riff x1)
MAIN RIFF x2
VERSE 2 (Verse riff x 3+1/2)
CHORUS (Chorus riff x 1)
SOLO (Main riff x 2)
CHORUS (Chorus riff x 1)
OUTRO (Main riff x 1)


| /  slide up
| \  slide down
| h  hammer-on
| p  pull-off
| ~  vibrato
| +  harmonic
| x  Mute note
==================================================================

            
            
Suggest correction
Creating personal tab
Creating personal tab
You can edit any tab online and save it as your Personal.

You can edit, replace or remove any tab part or add personal notes – all changes will be seen only by you.

Personal tabs can be accessed anytime from any device, even offline.
Learn more »
Give kudos to tab author, rate the tab!
1 2 3 4 5
comments
print report bad tab
guest
You may want to rate the tab now too:
select rating
Wanna post a correction for this tab? Suggest correction